Song name
# A B C D E F G H I J K L M N O P Q R S T U V W X Y Z

The Dear Hunter - City Escape tab

Title: City Escape
Artist: The Dear Hunter
Album: Act I: The Lake North, The River South
Tabbed by: Shrugs

-Standard Tuning
-4/4 Time Signature

This whole tab has been done by ear so please tell me if you find any little mistakes! 
me it sounds accurate, but the band has 4 guitarists so I feel like I might have combined 
of their parts during the choruses, but oh well, it makes a fuller sound.

Intro:
   Dm
E|-------------------|-----------------|------------------|-----------------|
B|-------------------|-----------------|------------------|-----0h2p0-------|
G|-------------------|-----------------|------------------|-0h3-------3p2p0-|
A|-----3---------3---|-5-5-5-5-53p2p0-|-----3--------3---|-----------------|
D|-4-----5---4-----5-|-----------------|-4-----5--4-----5-|-----------------|
E|---5---------5-----|-----------------|---5--------5-----|-----------------|

   Dm                                                       A
 |-------------------|-----------------|------------------|----------------:|
 |-------------------|-----------------|------------------|-5-5-5-5-5------:|
 |-------------------|-----------------|------------------|-6-6-6-6-6------:|
 |-----3---------3---|-5-5-5-5-53p2p0-|-----3--------3---|-7-7-7-7-7------:|
 |-4-----5---4-----5-|-----------------|-4-----5--4-----5-|-0--------------:|
 |---5---------5-----|-----------------|---5--------5-----|----------------:|

   Tremolo picking (over second repeat of intro)
E|-------------------------------------------------------------------------:|
B|-17///////5///////////////////////////15////////6////////////////////////:|
G|-------------------------------------------------------------------------:|
A|-14///////2///////////////////////////12////////3////////////////////////:|
D|-------------------------------------------------------------------------:|
E|-------------------------------------------------------------------------:|

Verse:
   Dm
E|-5/-----------------------------------------------------:|
B|-6/--------5-5-5-6----5---3-----8-8-8-10----10/---5--5--:|
G|-7/--------5-5-5-7----2---3-----9-9-9-10----10/---6--6--:|
A|-0------------------------------------------------------:|
D|--------------------------------------------------------:|
E|--------------------------------------------------------:|

Chorus:
   Dm                                A
E|---------------------------------|---------------------------------|
B|-6--6-6-6---6--6-6-6---6-6-6-6-6-|------------5--5-5-5--5-5-5-5-5--|
G|-7--7-7-7---7--7-7-7---7-7-7-7-7-|-6--6-6-6------------------------|
A|-7--7-7-7---7--7-7-7---7-7-7-7-7-|-7--7-7-7---7--7-7-7--7-7-7-7-7--|
D|---------------------------------|-4--4-4-4---4--4-4-4--4-4-4-4-4--|
E|-6--6-6-6---6--6-6-6---6-6-6-6-6-|---------------------------------|

   Bmaj7
e|---------------------------------|---------------------------------|
B|-6--6-6-6---6--6-6-6---6-6-6-6-6-|---------------------------------|
G|-7--7-7-7---7--7-7-7---7-7-7-7-7-|---------------------------------|
A|-7--7-7-7---7--7-7-7---7-7-7-7-7-|---------------------------------|
D|-8--8-8-8---8--8-8-8---8-8-8-8-8-|-1--0-----------4--8--5----------|
E|---------------------------------|-------3--1--0-------------------|

   Dm                                A
E|---------------------------------|---------------------------------|
B|---------------------------------|------------5--5-5-5--5-5-5-5-5--|
G|-7--7-7-7---7--7-7-7---7-7-7-7-7-|-6--6-6-6------------------------|
A|-7--5-------7--5-------7-7-7-7-7-|-7--7-7-7---7--7-7-7--7-7-7-7-7--|
D|------8-5--------8-5-------------|-4--4-4-4---4--4-4-4--4-4-4-4-4--|
E|-6--6-6-6---6--6-6-6---6-6-6-6-6-|---------------------------------|

   Db-dim
e|-----------------------------------------------------------------------|
B|-8---8--8-8----8---8-8--8----8--8--8--8--8--|------------------------|
G|-9---9--9--9----9---9--9--9----9--9--9--9--9--|-----------------7/-----|
A|-11--11-11-11---11--11-11-11---11-11-11-11-11-|------------------------|
D|-0---0--0--0----0---0--0--0----0--0--0--0--0--|-0-1-0-4-0-5-0-8-5/-----|
E|-----------------------------------------------------------------------|

Verse:
   Dm
E|-5/-----------------------------------------------------:|
B|-6/--------5-5-5-6----5---3-----8-8-8-10----10/---5--5--:|
G|-7/--------5-5-5-7----2---3-----9-9-9-10----10/---6--6--:|
A|-0------------------------------------------------------:|
D|--------------------------------------------------------:|
E|--------------------------------------------------------:|

(Trippy part)

2nd and 3rd Chorus:
   Dm                                A
E|---------------------------------|--------------------------------|
B|---------------------------------|------------5--5-5-5--5-5-5-5-5-|
G|-7--7-7-7---7--7-7-7---7----7----|-6--6-6-6-----------------------|
A|-7--5-------7--5-------5----7----|-7--7-7-7---5--5-5-5--5-5-5-5-5-|
D|------8-5--------8-5-------------|-4--4-4-4---4--4-4-4--4-4-4-4-4-|
E|-6--6-6-6---6--6-6-6---6----6----|--------------------------------|

   Bmaj7
e|---------------------------------|--------------------------------|
B|-6--6-6-6---6--6-6-6---6-6-6-6-6-|--------------------------------|
G|-7--7-7-7---7--7-7-7---7-7-7-7-7-|--------------------------------|
A|-7--7-7-7---7--7-7-7---7-7-7-7-7-|--------------------------------|
D|-8--8-8-8---8--8-8-8---8-8-8-8-8-|-1--0-----------4--8--5---------|
E|---------------------------------|-------3--1--0------------------|

   Dm                                A
E|--------------------------------|---------------------------------|
B|--------------------------------|------------5--5-5-5--5-5-5-5-5--|
G|-7--7-7-7---7--7-7-7----7---7---|-6--6-6-6------------------------|
A|-7--5-------7--5--------5---7---|-7--7-7-7---5--5-5-5--5-5-5-5-5--|
D|------8-5--------8-5------------|-4--4-4-4---4--4-4-4--4-4-4-4-4--|
E|-6--6-6-6---6--6-6-6----6---6---|---------------------------------|

   Db-dim
e|--------------------------------------------|---------------------|
B|-8---8--8-8---8---8-8--8---8--8--8--8--8--|---------------------|
G|-9---9--9--9---9---9--9--9---9--9--9--9--9--|-----------------7/--|
A|-11--11-11-11--11--11-11-11--11-11-11-11-11-|---------------------|
D|-0---0--0--0---0---0--0--0---0--0--0--0--0--|-0-1-0-4-0-5-0-8-5/--|
E|--------------------------------------------|---------------------|
Tap to rate this tab
# A B C D E F G H I J K L M N O P Q R S T U V W X Y Z