Song name
# A B C D E F G H I J K L M N O P Q R S T U V W X Y Z

The Dear Hunter - Blood Of The Rose tab

Palm-mute and fingerpick every note to give
the effect of a cello.  This is also the
violin part which is an octave above the cello.

E-----------|-----------|-----------|-----------|
B-------3---|-------3---|-------3---|-------3---|
G-----------|-----------|-----1---1-|-----1---1-|
D-----4---4-|-----4---4-|-----------|-----------|
A-2---------|-2---------|-2---------|-2---------|
E-----------|-----------|-----------|-----------|

E-----------|-----------|-----------------------|
B-----------|-----------|-----------------------|
G-------4---|-------3---|-----------------------|
D-----------|-----------|-----------------------|
A-----5---5-|-----4---4-|-2---------5-4-2-----2-|
E-3---------|-2---------|-----3-2-6---------2---|

If anyone has the rest of it please feel free to
e-mail me.  Hope this helps.
finchpx@yahoo.com
Tap to rate this tab
# A B C D E F G H I J K L M N O P Q R S T U V W X Y Z