The Dear Hunter - City Escape tab

e|-------------------------------------------------------------------|
B|-------------------------------------------------------------------|
G|-------------------------------------------------------------------|
A|-------------------5-5-5-5-5-5-3-0-----------------3-3-5-7-5-3-----|
D|-4-0-8-5--4-0-8-5-----------------4-0-8-5--4-0-8-5------------7-5--|  
E|-------------------------------------------------------------------|

e|------------------------------------------------------------------|
B|------------------------------------------------------------------|
G|-----------------------------------------------------5-5-5-5-5----|
A|-------------------5-5-5-5-5-5-3-0-------------------4-4-4-4-4----|
D|-4-0-8-5--4-0-8-5-----------------4-0-8-5--4-0-8-5---3-3-3-3-3----|  
E|------------------------------------------------------------------|

repeat that once and youre done...... with the intro ^^
Tap to rate this tab
 
# A B C D E F G H I J K L M N O P Q R S T U V W X Y Z