Song name
# A B C D E F G H I J K L M N O P Q R S T U V W X Y Z

The Dear Hunter - In Cauda Venenum tab

Thought I'd have a go at this one since it's not currently tabbed on this site for
I'm pretty sure that most of this is accurate. I've tabbed out the guitar and also the chords
you'd prefer to play them.

Anyway, enjoy.

(Please rate/comment!!)

== The Dear Hunter - In Cauda Venenum ==

e|------------------------------------------------------------------|
B|------------------------------------------------------------------|
G|------------------------------------------------------------------|
D|------------3-------3-------3-------3---------------3-------7--6--|
A|-5--5--5-5-----4-5-----4-5-----4-5-----4-5--5--5-5-----4-5--------|
E|------------------------------------------------------------------|


(00:08)
e|------------------------------|
B|------------------------------|
G|------------------------------|
D|------------------------------|
A|-5--5--555------5--5--555-----|
E|------------------------------|

(or alternatively, you could play this)

(00:08)
e|------------------------------------|
B|------------------------------------|
G|-------2-------1-------2-------1----|
D|----3-------3-------3-------3-------|
A|-5-------5-------5-------5----------|
E|------------------------------------|


(00:11)
e|------------------------------------------------------------------|
B|------------------------------------------------------------------|
G|------------------------------------------------------------------|
D|------------3-------3-------3-------3---------------3-------7--6--|
A|-5--5--5-5-----4-5-----4-5-----4-5-----4-5--5--5-5-----4-5--------|
E|------------------------------------------------------------------|


(00:18)
e|------------------------------|
B|------------------------------|
G|------------------------------|
D|------------------------------|
A|-5--5--555------5--5--555-----|
E|------------------------------| x2

(00:18)
e|------------------------------------|
B|------------------------------------|
G|-------2-------1-------2-------1----|
D|----3-------3-------3-------3-------|
A|-5-------5-------5-------5----------|
E|------------------------------------| x2

e|-----------------------------------------------------|
B|-----------------------------------------------------|
G|------------7--10----9--------7--10-10p9-----7-------|
D|------------------------11---------------11-----7----|
A|-5--5--5-5-------------------------------------------|
E|-----------------------------------------------------|


e|------------------------------------------|
B|------------------------------------------|
G|-7--10----9--------7--10-10p9-----7-------|
D|-------------11---------------11-----7----|
A|------------------------------------------|
E|------------------------------------------|

e|---------------------------------------------------------------|
B|---------------------------------------------------------------|
G|-----------------------------------------0----------0----3--0--|
D|-8--5----7--3----5--2----3--0-------2-------2----2-------------|
A|---------------------------------4-----------------------------|
E|---------------------------------------------------------------|

e|------------------------------------------|
B|------------------------------------------|
G|-7--10----9--------7--10-10p9-----7-------|
D|-------------11---------------11-----7----|
A|------------------------------------------|
E|------------------------------------------| x2


e|---------------------------------------------------------------------|
B|---------------------------------------------------------------------|
G|----------------------------------------------0-----------0----3--0--|
D|-8--5----7--3----5--2----3p2p0------------2-------2----2-------------|
A|-------------------------------4--0----4-----------------------------|
E|---------------------------------------------------------------------|


e|-------------------------------------------------------|
B|-------------------------------------------------------|
G|-------------------------------------------------------|
D|-7--7--xx7--7-xx7--7--7-7------8--8-xx8--8-xx7--7--7-7-|
A|-------------------------------------------------------|
E|-------------------------------------------------------|


For the chorus the notes are tremolo picked, but to save writing out a mass of numbers
making it confusing Iíve simply tabbed out the notes that are played and have tried to
you a rough approximation of the timing, however you can easily get to grips with the 
by just listening to the song. The note changes in the chorus typically correspond to
note changes in the vocal line. Iíve also included the chords to the chorus (note: the 
Gm in the verse can be replaced by an A#, but I think that the Gm sounds better).


   Dm                               E
e|-5--5--5-5--5--5-5--5--5-6------5-4--4--4-4--4--4-4--4--4-4--4--4-|
B|------------------------------------------------------------------|
G|------------------------------------------------------------------|
D|------------------------------------------------------------------|
A|------------------------------------------------------------------|
E|------------------------------------------------------------------|

   Gm                              F
e|-6--6--6-6--6--6-1--1--1-3--3--3-5--5--5-5--5--5-5--5--5-6--5----|
B|-----------------------------------------------------------------|
G|-----------------------------------------------------------------|
D|-----------------------------------------------------------------|
A|-----------------------------------------------------------------|
E|-----------------------------------------------------------------|

   A                               Dm
e|-5--3--1-0----------------3------3--1--0-----------------|
B|-----------------------------------------3-------3--5--6-|
G|---------------------------------------------------------|
D|---------------------------------------------------------|
A|---------------------------------------------------------|
E|---------------------------------------------------------|

  A#                              A
e|-5--5--5-5--5--5-6--6--6-5--5-6-5--5--5-5--5--5-5--5--5-6--|
B|-----------------------------------------------------------|
G|-----------------------------------------------------------|
D|-----------------------------------------------------------|
A|-----------------------------------------------------------|
E|-----------------------------------------------------------|

  Gm                                  A
e|-6--6--6-6--6--6-8--8--8-10--10--10-9--9--9-12--12--12-12--12--12-12--12--12-|
B|-----------------------------------------------------------------------------|
G|-----------------------------------------------------------------------------|
D|-----------------------------------------------------------------------------|
A|-----------------------------------------------------------------------------|
E|-----------------------------------------------------------------------------|


e|----------------------------------------|
B|----------------------------------------|
G|-7--5--3--------------------------------|
D|---------7--5--3------------------------|
A|-----------------7--5--3----------------|
E|-------------------------6-----5-----5--|


e|------------------------------------------------------------------|
B|------------------------------------------------------------------|
G|------------------------------------------------------------------|
D|------------3-------3-------3-------3---------------3-------7--6--|
A|-5--5--5-5-----4-5-----4-5-----4-5-----4-5--5--5-5-----4-5--------|
E|------------------------------------------------------------------| x2


No guitar in this verse. If you wanted to you could just repeat the guitar part from
one. This next part Iíve tabbed starts at 2:22. Iím not sure if itís a guitar, but Iíve
it anyway.


(02:22)
e|----------------------------8--10-----------|
B|-10-----------------11-10-8--------11-10----|
G|--------------------------------------------|
D|--------------------------------------------|
A|--------------------------------------------|
E|--------------------------------------------|


e|-------------------------------8--10-|
B|-10-----------------11-10-8-11-------|
G|-------------------------------------|
D|-------------------------------------|
A|-------------------------------------|
E|-------------------------------------|


e|----------------------------------------------------------|
B|-10-10---10-10---10-10-10---11-11---11-11---7--7--7-7-----|
G|----------------------------------------------------------|
D|-7--7----7--7----7--7--7----8--8----8--8----5--5--5-5-----|
A|----------------------------------------------------------|
E|----------------------------------------------------------|


e|------------------------------------------------------|
B|-6--6----6--6----6--6--6----10-10---10-10---9--9--9-9-|
G|------------------------------------------------------|
D|-3--3----3--3----3--3--3----8--8----8--8----7--7--7-7-|
A|------------------------------------------------------|
E|------------------------------------------------------|

(02:59)
e|-5--5--5-5--5--5-5--5--5-6------5-4--4--4-4--4--4-4--4--4-4--4--4-|
B|------------------------------------------------------------------|
G|------------------------------------------------------------------|
D|------------------------------------------------------------------|
A|------------------------------------------------------------------|
E|------------------------------------------------------------------|


e|-6--6--6-6--6--6-1--1--1-3--3--3-5--5--5-5--5--5-5--5--5-3--3--3-|
B|-----------------------------------------------------------------|
G|-----------------------------------------------------------------|
D|-----------------------------------------------------------------|
A|-----------------------------------------------------------------|
E|-----------------------------------------------------------------|

e|-5--5--5-5--5--5-6--6--6-5--5--5-4--4--4-0--0--0-0--0--0-0--0--0-|
B|-----------------------------------------------------------------|
G|-----------------------------------------------------------------|
D|-----------------------------------------------------------------|
A|-----------------------------------------------------------------|
E|-----------------------------------------------------------------|

e|-6--6--6-6--6--6-8--8--8-6--6--6-5--5--5-5--5--5-5--5-5-6---5-|
B|--------------------------------------------------------------|
G|--------------------------------------------------------------|
D|--------------------------------------------------------------|
A|--------------------------------------------------------------|
E|--------------------------------------------------------------|


e|-5--3--1-0----------------3------3--1--0----------------|
B|-----------------------------------------3------5--3--5-|
G|--------------------------------------------------------|
D|--------------------------------------------------------|
A|--------------------------------------------------------|
E|--------------------------------------------------------|


e|-1--1--1-1--1--1-6--6--6-5---6---5--5--5-5--5--5-5--5--5-6--6--6-|
B|-----------------------------------------------------------------|
G|-----------------------------------------------------------------|
D|-----------------------------------------------------------------|
A|-----------------------------------------------------------------|
E|-----------------------------------------------------------------|


e|-6--6--6-6--6--6-8--8--8-10--10--10-9--9--9-12--12--12-12--12--12-12--12--12-|
B|-----------------------------------------------------------------------------|
G|-----------------------------------------------------------------------------|
D|-----------------------------------------------------------------------------|
A|-----------------------------------------------------------------------------|
E|-----------------------------------------------------------------------------|


e|----------------------------------------|
B|----------------------------------------|
G|-7--5--3--------------------------------|
D|---------7--5--3------------------------|
A|-----------------7--5--3----------------|
E|-------------------------6-----5-----5--|

The outro is just piano, but if you want to play along the chords are:


F                     Gm           C
Oh when I think about your eyes

F                     Gm           C
Oh when I think about your smile

F                     Gm           C
Oh when I dream about your eyes/lies

Bm                               F             Gm            C
Travel all this way just to find love.


F                     Gm           C  (Repeat till end).
Tap to rate this tab
 
# A B C D E F G H I J K L M N O P Q R S T U V W X Y Z