The Dear Hunter - His Hands Matched His Tongue tab

Song: His Hand Matched His Tongue
Artist: The Dear Hunter
Album: Act I: The Lake South, The River North
Tabbed By: Shrugs, edited by drinkos

-Standard tuning
-3:4 time signature
-Finger picking

I totally took most of this from Shrugs because I'll only be making some 
adjustments, just giving credit. It was pretty wrong though so derp here you go.

			-drinkos

Verse:

E||----------------|----------------|---------------|----------------|
B||--2--------2----|--3--------3----|--2--------2---|--2--------2----|
G||----------------|----------------|---------------|----------------|
D||--2----------2--|--4----------4--|--2----------2-|-------2--------|
A||-------0--------|-------0--------|-------0-------|--0----------0--|
E||----------------|----------------|---------------|----------------|



|----------------|----------------|----------------|-----------------:|
|--9--------9----|--10-------10---|--7--------7----|--7---------7----:|
|----------------|----------------|----------------|-----------------:|
|--9---------9--|--9-----------9-|--7----------7--|--------7-----0--:|
|-------0--------|-------0--------|-------0--------|--0--------------:|
|----------------|----------------|----------------|-----------------:|

		 |----------------|
		 |--10--------9---|
		 |--------------9-|	<---- Start using this on
		 |--9-------------|	      third repeat of verse
		 |-------0--------|
		 |----------------|


1st and 2nd Chorus:

   Bm               Bm               E                E
|----------------|----------------|----------------|-----------------:|
|--7-------7-----|--7-------7-----|--9-------9-----|--9-------10-----:|
|----------------|----------------|----------------|-----------------:|
|----------------|----------------|----------------|-----------------:|
|----------------|----------------|----------------|-----------------:|
|--7----7-----7--|--7----7-----7--|--0----0-----0--|--0----0------0--:|
Tap to rate this tab
 
# A B C D E F G H I J K L M N O P Q R S T U V W X Y Z