The Dear Hunter - Weve Got A Score To Settle tab

I don't tab often, just kind of figured out the basics to this song, thought I'd post what I have.

Intro Gtr. 1

----------|
----------|
----------|
-2-2------|
-2-2------|
-0-0------|

Intro Gtr.2

---0~~~~~~
---0~~~~~~
-9-9b~~~~~
-9-9~~~~~~
-7-7~~~~~~
-----------

Verse Gtr 2.

-------------------------|
-------------------------|
-11b-9b-7b-9b-11b-9b-7bv-|
-------------------------|
-------------------------|
-------------------------|

Chorus

-3-0-3-0---|
-1-0-1-0-4-|
-2-0-2-0-4-|
-2-2-2-2-4-|
-0-2-0-2-2-|
---0-0-0---|

Verse 2

Gtr 1.

-7------7        -8--------8---|
-----8---        -----10-------|
---9--9--X 4     ---9----9-----| X4
---------        --------------|
---------        --------------|
---------        --------------|

Gtr 2

-------------------------|
-------------------------|
-11b-9b-7b-9b-11b-9b-7bv-|
-------------------------|
-9b--7b-5b-7b-9b--7b-5bv-|
-------------------------|

Chorus

-3-0-3-0---|
-1-0-1-0-4-|
-2-0-2-0-4-|
-2-2-2-2-4-|
-0-2-0-2-2-|
---0-0-0---|

Outro same as into
Tap to rate this tab
 
# A B C D E F G H I J K L M N O P Q R S T U V W X Y Z