The Dear Hunter - Shes Always Singing tab

The Dear Hunter - She's Always Singing
----------------------------------------
Awesome little song off of the Dear Hunter's Yellow EP on the Color Spectrum. Here's how 
I play it in its entirety.
-------------------------------------------------------------------------


Intro: G Em C Am C Am G

e|-------------------|-------------------|-------------------|
B|-------------------|---7-------5-------|-----------5---8---|
G|-----------4---7---|---------------7---|---5---7-----------|
D|---5---7-----------|-------------------|-------------------|
A|-------------------|-------------------|-------------------|
E|-------------------|-------------------|-------------------|

e|---7------5--------|-------------------|---5---7---8---9---|
B|--------------8----|-------5---7---8---|-------------------|
G|-------------------|---7---------------|-------------------|
D|-------------------|-------------------|-------------------|
A|-------------------|-------------------|-------------------|
E|-------------------|-------------------|-------------------|

e|---10--------------|-------------------|--12p10------------|
B|-------------------|-------------------|--------13p12p10\8-|
G|-------------------|-------------------|-------------------|
D|-------------------|-------------------|-------------------|
A|-------------------|-------------------|-------------------|
E|-------------------|-------------------|-------------------|

e|-------------------|-------------------|-------------------|
B|-----------8---7---|--------7----------|-------------------|
G|--------7----------|---9-------9-------|-------------------|
D|---9---------------|---------------7---|---9---------------|
A|-------------------|-------------------|-------------------|
E|-------------------|-------------------|-------------------|



I'd say palm mute the verses, and then the strumming pattern for the fill that comes 
after each phrase in the verse should go something like this (if you use open chords)-- up 
and down strums are indicated:

      G       G  C    C         G       G  G
e|----3----x--3--0----0----|----3----x--3--3--------|
B|----3----x--3--1----1----|----3----x--3--3--------|
G|----0----x--0--0----0----|----0----x--0--0--------|
D|----0----x--0--2----2----|----0----x--0--0--------|
A|----2----x--2--3----3----|----2----x--2--2--------|
E|----3----x--3------------|----3----x--3--3--------|
     (d)  (d)(u)(d)  (d)       (d)  (d)(u)(d)





And here are the chords for the song:
-------------------------------------------------------

           G                        C                     G C G
Your voice arose to the top of the tones that rushed around,
G                     C         G C G
and I became addicted to that sound



            C            D
Every other lover in this city
    G                  C
has got their song to sing,
     Am          D           G C G
but none of them ring in my ear.



           G                                 C                       G C G
The clamor calmed, and when you cleared your throat and spoke gracefully
         G                 C          G C G
my body swayed with every word you speak.



             C             D
Every other lover in this city
    G                 C
has got their song to sing,
     Am           D
but none of them ring
     Em           Am         D
But none of them ring in my ear.



[[For the "BA BA BA" part, you definitely should use bar chords, here's what it should 
look like:]] ( up and down strumming is indicated; (R) = rest)

     BA      BA BA BA   BA        BA    BA BA    BA
e|----3----x--3--3--5----5--|-----5-----5--5----5----|
B|----5----x--5--5--5----7--|-----7-----7--7----5----|
G|----5----x--5--5--5----7--|-(R)-7-(R)-7--7----5----|
D|----5----x--5--5-------7--|-----7-----7--7---------|
A|----3----x--3--3-------5--|-----5-----5--5---------|
E|--------------------------|------------------------|
     (d)  (d)(u)(d)(u)  (u)      (u)   (u)(d)   (d)

      BA      BA BA BA   BA
e|----3----x--3--3--3----3--|-----3-----3--3----x--x--|
B|----3----x--3--3--3----5--|-----5-----5--5----x--x--|
G|----4----x--4--4--4----5--|-(R)-5-(R)-5--5----x--x--|
D|----5----x--5--5--5----5--|-----5-----5--5----x--x--|
A|----5----x--5--5--5----3--|-----3-----3--3----x--x--|
E|----3----x--3--3--3-------|-------------------x--x--|
     (d)  (d)(u)(d)(u)  (u)      (u)   (u)(d)  (d)(u)


PLAY ^THIS^ 3X, THEN END WITH:

e|----3----x--3--3--3----5--|-----5-------------------|
B|----5----x--5--5--5----7--|-----7-------------------|
G|----5----x--5--5--5----7--|-(R)-7-------------------|
D|----5----x--5--5--5----7--|-----7-------------------|
A|----3----x--3--3--3----5--|-----5-------------------|
E|---------x----------------|-------------------------|
     (d)  (d)(u)(d)(u)  (u)      (u)



the part leading back into the chorus is kind of rough because there seems to be 
multiple guitars, so here's one of them. if you play this three times, it should work, listen 
for where it goes:


e|--7--7--8--10----|
B|--8--8--8--10----|
G|-----------------|
D|-----------------|
A|-----------------|
E|-----------------|  3X



C                             D
And every other lover in this city
G                     C
Has got their song to sing
    Am           D
But none of them ring
     Em           Am
But none of them ring
     C            D (or outro)
But none of them ring



Outro: (starts on the last "ring") Just walk down the frets from 16 with major chords 
and end on G

E|--16--15--14--13--12--11--10--9--8--7--6--5--4--3--2--1----3---------|
B|--16--15--14--13--12--11--10--9--8--7--6--5--4--3--2--1----3---------|
G|--17--16--15--14--13--12--11-10--9--8--7--6--5--4--3--2----0---------|
D|-----------------------------------------------------------0---------|
A|-----------------------------------------------------------2---------|
E|-----------------------------------------------------------3---------|


Alright, that's the song. If you want to just ditch the outro when you're playing this, 
I'd just play D and go straight to G. I hope this tab worked for you. Comment if you 
think I should change something. Rate up if you liked it :)
Tap to rate this tab
 
# A B C D E F G H I J K L M N O P Q R S T U V W X Y Z