The Dear Hunter - What You Said Blue tab

-------------------------------------------------------------------------------
			     What You Said (Blue) - The Dear Hunter
-------------------------------------------------------------------------------
Tabbed by: jgsb2001

Tuning: Standard


Intro
                 Starved eyes....
e --1--3--6--10--8-----|
b --1--4--6--8---8-----|
G --1--3--7--9---9-----|
D ---------------------|
A ---------------------|
E ---------------------|


Verse

  Don't go.....astray.....love before....tonight.....And what....
e --7------------1------------5------------7------------8----|
b --8------------1------------6------------8------------8----|
G --7------------2------------5------------7------------9----|
D --9------------3------------7------------9------------10---|
A --7------------3------------5------------7------------10---|
E ---------------1--------------------------------------8----|

2nd ending of Verse. First appears at 01:56 (very iffy on this part)
e --5-----------0---|
b --6---5---3---0---|
G --5---5---2---0---|
D --7---5---4---0---|
A --5---3---2---2---|
E --------------3---|

Chorus

  Don't spend...
e --5------------3------------8-------------5-------|
b --6------------3------------8-------------5-------|
G --5------------4------------9-------------5-------|
D --7------------5------------10------------5-------|
A --5------------5------------10------------7-------|
E --5------------3------------8-------------5-------|

  Imagine what you would say...
e --5------------3------------3-------------5----------|
b --6------------3------------5-------------6----------|
G --5------------4------------5-------------5----------|
D --7------------5------------5-------------7----------|
A --5------------5------------3-------------5----------|
E --5------------3------------3-------------5----------|


Post Chorus/Bridge [01:20]

  C - Em - F - Fm

  0    0   1    1
  1    0   1    1
  0    0   2    1
  2    2   3    3
  3    2   3    3
  x    0   1    1


Lead - Post Chorus/Bridge [01:20]

e ----------------------------------------------------------|
b -------------------------5^3^5-5/8-----6^5-6-6/8--6--5-6--|
G --9~--9^7^9-9/10-9-2/4~------------5-2--------------------|
D ----------------------------------------------------------|
A ----------------------------------------------------------|
E ----------------------------------------------------------|



Outro [03:15]

e --3------------1------------0-------------|
b --1------------1------------1-------------|
G --2------------1------------0-------------|
D --3------------3------------2-------------|
A ---------------3------------3-------------|
E ---------------1------------0-------------|

Lead - Outro [03:15]

e --------------------|
b --20----18----17----|
G --------------------|
D --------------------|
A --------------------|
E --------------------|


 [04:06] mix in the descending slides
e ---------------------------------------------------------------------------------|
b ---------------------------------------------------------------------------------|
G ---------------------------------------------------------------------------------|
D --2~-----2/5------5/9-----9/7/5--------2~-----2/10--10/9~-----9/7/5--------------|
A ---------------------------------------------------------------------------------|
E ---------------------------------------------------------------------------------|
Tap to rate this tab
 
# A B C D E F G H I J K L M N O P Q R S T U V W X Y Z