The Dear Hunter - The Collapse Of The Great Tide Cliffs Blue tab

-------------------------------------------------------------------------------
			     The Collapse of the Great Tide Cliffs (Blue) - The Dear Hunter
-------------------------------------------------------------------------------
Tabbed by: jgsb2001 with help from Search of LATR

Tuning: Standard


Intro and Verse part 1 [00:00 to 00:26] and [01:13 to 01:38]
e --0----4----4--------------|
b --0----4----5----4---------|
G --1----4----6----4----2----|
D --2----6----6----4----2----|
A --2----6----4----2----0----|
E --0----4-------------------|

Verse part 2 [00:27 to 00:40] and [01:39 to 01:51]
e --2----4----5----0----|
b --2----4----5----0----|
G --2----4----6----1----|
D --4----6----7----2----|
A --4----6----7----2----|
E --2----4----5----0----|

Verse part 3 [00:41 to 00:52] and [01:52 to 02:02]
e --2----4----5----4----|
b --2----4----5----5----|
G --2----4----6----6----|
D --4----6----7----6----|
A --4----6----7----4----|
E --2----4----5---------|

"Oooooh!" Part[00:53 to 01:08] and [02:05 to 02:30]
e --0----2----|
b --0----2----|
G --1----2----|
D --2----4----|
A --2----4----|
E --0----2----|

Outro [02:31 to 03:24]
e --0-----------------------|
b --0----4----5-------------|
G --1----4----6----5----4---|
D --2----6----7----7----6---|
A --2----6----7----7----6---|
E --0----4----5----5----4---|

Tremolo picking for first part of Outro [02:31]
e ----------------------------|
b ----------------------------|
G ----------------------------|
D --6---9---6---6---7------6--|
A ----------------------------|
E ----------------------------|

Lead notes  that I like to play over the end [03:11]
replace the second 9 with an 8 for the first section.
e ---12--11--9--9--7------12---11---9---7--7--|
b ------------------------12---12---9---9--7--|
G --------------------------------------------|
D --------------------------------------------|
A --------------------------------------------|
E --------------------------------------------|

[03:24]
e --0-------------------|
b --0----4----5----7----|
G --1----4----6----8----|
D --2----6----7----9----|
A --2----6----7----9----|
E --0----4----5----7----|
Tap to rate this tab
 
# A B C D E F G H I J K L M N O P Q R S T U V W X Y Z