Song name
# A B C D E F G H I J K L M N O P Q R S T U V W X Y Z

The Dear Hunter - Crow And Cackle chords

Highlighted       Show chord diagrams
Crow and Cackle - The Dear Hunter



Capo on 2nd fret


Intro

E|----------|
B|----------|
G|----------|
D|-0-2------|
A|-----3-2--|
E|----------|

G Bm Em C G D/F#


     G         Bm    Em     C     G      D/F#
The crow and cackle of persistent innocence
    G     Bm    Em      C       G      D/F#
Elated in argument i'm empty and wondering 


          Am                 Em      D     Am     Em   D
if you're only saying what I wanted you to say
              Am                 Em      D     Am     C
'Cause you're only saying what I wanted you to say



Chorus

    G                     Em                         Cm                   Am       D
So i'll just wait until our time slips through the cracks, falls to the ground shattering

      G                        Em         Cm                   Am        D
I'll just keep waiting for something to improve. Something to move ahead

           Am                  Em     D     Am         C
Cause i'm only saying what you wanted me to say



     G         Bm    Em       C      G        D/F#
The slow and steady sound of silence hunts us down
      G        Bm    Em          C                   G     D/F#
I'm empty and wondering what you sent me, what you're offering.


              Am                 Em      D     Am     Em   D         
'Cause you're only saying what I wanted you to say
            Am                 Em      D     Am      C
Yeah you're only saying what I wanted you to say


Chorus x1


Solo (Backing Chords are Bridge Chords)

E|--------------------------------------------------------------------------|
B|---------------7br----5br----------7br-----8br-5---------7br----5br-------|
G|-------------9-------------------9---------------------9------------------|
D|--7br------9--------7----------9--------7------------9--------7-----------|
A|--------------------------------------------------------------------------|
E|--------------------------------------------------------------------------|


Chorus x1


          Am                   Em     D      C
Cause i'm only saying what you wanted me to say


Not 100% on the solo, but it does the job. Cheers.
Tap to rate this tab
 
# A B C D E F G H I J K L M N O P Q R S T U V W X Y Z