Song name
# A B C D E F G H I J K L M N O P Q R S T U V W X Y Z

The Dear Hunter - The Inheritance tab

                          The Inheritance                                 


                                                                 The Dear Hunter
Acoustic Guitar (Capo 5)



     Q    E  E  Q    E  E     Q    E  E  Q    E  E     Q    Q    E  E  E  E   
E||------------------------|------------------------|------------------------|
B||----------0----------0--|----------0----------0--|--0----0----L--0--0--0--|
G||-------0--0-------0--0--|----------0----------0--|--2----2----L--2--2--0--|
D||--2----2--2--0----0--0--|-------0--0-------0--0--|--0----0----L--0--0--0--|
A||------------------------|--4----4-----0----0-----|--2----2----L--2--2--0--|
E||------------------------|------------------------|------------------------|


  Q    Q    E  E  E  E     Q    E  E  Q    E  E     Q    E  E  Q    E  E   
------------------------|------------------------|------------------------|
--0----0----L--0--0--0--|----------0----------0--|----------0----------0--|
--0----0----L--0--0--0--|-------0--0-------0--0--|----------0----------0--|
--2----2----L--2--2--2--|--2----2--2--0----0--0--|-------0--0-------0--0--|
--2----2----L--2--2--2--|------------------------|--4----4-----0----0-----|
--0----0----L--0--0--0--|------------------------|------------------------|


  Q    Q    E  E  E  E     W                   Q    E  E  Q    E  E   
------------------------|-------------------|-------0--0-------0--0--|
--0----0----L--0--0--0--|--0----------------|--1----1--1--1----1--1--|
--2----2----L--2--2--0--|--2----------------|--0----0--0--0----0--0--|
--0----0----L--0--0--0--|--1----------------|--2----2--2--0----0--0--|
--2----2----L--2--2--0--|--2----------------|------------------------|
------------------------|--0----------------|------------------------|


  Q    E  E  Q    E  E     Q    Q    E   E  E  E     Q    Q    E  E  E  E   
------------------------|-------------------------|------------------------|
-------1--1-------1--1--|-------1--------------0--|-------0----L--0--0--0--|
--0----0--0--0----0--0--|-------0--------------0--|-------0----L--0--0--0--|
--x----x--x--x----x--x--|-------2-----------0-----|-------2----L--2--2--2--|
--2----2--2--2----2--2--|--0---------0h--2--------|-------2----L--2--2--2--|
-------------3----3--3--|-------------------------|--0----0----L--0--0--0--|


  Q    Q    E   E  E  E     Q    Q    E  E  E  E     Q    Q    E  E  E  E   
-------------------------|------------------------|------------------------|
-------1--------------0--|-------0----L--0--0--0--|--0----0----L--0--0--0--|
-------0--------------0--|-------0-------0--0--0--|--2----2-------2--2--0--|
-------2-----------0-----|-------2----L--2--2--2--|--0----0----L--0--0--0--|
--0---------0h--2--------|-------2----L--2--2--2--|--2----2----L--2--2--0--|
-------------------------|--0----0----L--0--0--0--|--0----0----L--0--0-----|


  W                   Q    Q    E  E  E  E     Q    Q    E  E  E  E   
-------------------|-------0----L--0--0-----|-------3----L--3--3-----|
--0----------------|-------1----L--1--1--0--|-------0----L--0--0--0--|
--2----------------|-------0----L--0--0--0--|-------0----L--0--0--0--|
--1----------------|--2----2----L--2--2--0--|-------0----L--0--0--0--|
--2----------------|--3----3----L--3--3--0--|--2----2----L--2--2--0--|
--0----------------|------------------------|--3----3----L--3--3-----|


  Q    Q    E  E  E  E     Q    Q    E  E  E  E     Q    Q    E   E  E  E   
-------0----L--0--0-----|-------3----L--3--3-----|-------------------------|
-------1----L--1--1--0--|-------0----L--0--0--0--|-------1--------------0--|
-------0----L--0--0--0--|-------0----L--0--0--0--|-------0--------------0--|
--2----2----L--2--2--0--|-------0----L--0--0--0--|-------2-----------0-----|
--3----3----L--3--3--0--|--2----2-------2--2--0--|--0---------0h--2--------|
------------------------|--3----3----L--3--3-----|-------------------------|


  Q    Q    E  E  E  E     Q    Q    E   E  E  E     Q    Q    E  E  E  E   
------------------------|-------------------------|------------------------|
-------0----L--0--0--0--|-------1--------------0--|-------0----L--0--0--0--|
-------0----L--0--0--0--|-------0--------------0--|-------0----L--0--0--0--|
-------2----L--2--2--2--|-------2-----------0-----|-------2----L--2--2--2--|
-------2----L--2--2--2--|--0---------0h--2--------|-------2----L--2--2--2--|
--0----0----L--0--0--0--|-------------------------|--0----0----L--0--0--0--|


  Q    Q    E  E  E  E     Q    Q    E  E  E  E     Q    Q    E  E  E  E   
-------0----L--0--0-----|-------3----L--3--3-----|-------0----L--0--0-----|
-------1----L--1--1--0--|-------0----L--0--0--0--|-------1----L--1--1--0--|
-------0----L--0--0--0--|-------0----L--0--0--0--|-------0----L--0--0--0--|
--2----2----L--2--2--0--|-------0----L--0--0--0--|--2----2----L--2--2--0--|
--3----3----L--3--3--0--|--2----2----L--2--2--0--|--3----3----L--3--3--0--|
------------------------|--3----3----L--3--3-----|------------------------|


  Q    Q    E  E  E  E     Q    Q    E  E  E  E     W                 
------------------------|------------------------|-------------------|
-------0----L--0--0--0--|--1----1----L--1--1--0--|--0----------------|
--2----2----L--2--2--0--|--0----0----L--0--0--0--|--2----------------|
--0----0-------0--0--0--|--2----2----L--2--2--0--|--1----------------|
--2----2----L--2--2--0--|-------0----L--0--0--0--|--2----------------|
------------------------|------------------------|--0----------------|


  Q    Q    E  E  E  E     Q    Q    E  E  E  E     Q    Q    E  E  E  E   
------------------------|------------------------|------------------------|
--0----0----L--0--0--0--|--0----0----L--0--0--0--|--0----0----L--0--0--0--|
--0----0----L--0--0--0--|--0----0----L--0--0--0--|--0----0----L--0--0--0--|
--2----2----L--2--2--2--|--2----2----L--2--2--2--|--2----2----L--2--2--2--|
--2----2----L--2--2--2--|--2----2----L--2--2--2--|--2----2----L--2--2--2--|
--0----0----L--0--0--0--|--0----0----L--0--0--0--|--0----0----L--0--0--0--|


  Q    Q    E  E  E  E    
------------------------||
--0----0----L--0--0--0--||
--0----0----L--0--0--0--||
--2----2----L--2--2--2--||
--2----2----L--2--2--2--||
--0----0----L--0--0--0--||



Lyrics

Mouths to feed, wont sleep till he arrives, so he brings his work home.
Late nights waste away plotting a plan, tracing the steps he needs to take,
Till he says, "my job is done, your old enough it's time to leave this home,
And go on your own, I know it's hard, but it's not my problem anymore, not anymore."

Eyes closed children rest unaware, so he keeps their lights dim.
And angels hold their tongues above, with the scowl shaking their fist,
When he says, "my job is done, your old enough it's time to leave this home,
And go on your own, I know it's hard, but it's not my problem anymore, not any more."

My job is done, your old enough, it's time to leave this home.
And go on your own, we had our run now you're old enough to go down your track,
So don't look back, I know it's hard, but it's not my problem anymore, not any more.






Duration Legend
---------------
W - whole
H - half
Q - quarter
E - 8th
S - 16th
T - 32nd
X - 64th
. - note dotted
|-n-|  - n-tuplets


Tablature Legend
----------------
L - tied note
x - dead note
g - grace note
(n) - ghost note
> - accentuded note
NH - natural harmonic
AH - artificial harmonic
TH - tapped harmonic
SH - semi harmonic
PH - pitch harmonic
h - hammer on
p - pull off
b - bend
br - bendRelease
pb - preBend
pbr - preBendRelease
brb - bendReleaseBend
\n/ - tremolo bar dip
\n - tremolo bar dive
-/n - tremolo bar Release up
/n\ - tremolo bar inverted dip
/n - tremolo bar return
-\n - tremolo bar Release down
S - shift slide
s - legato slide
/ -  slide into from below or out of upwards
\ -  slide into from above or out of downwards
~ - vibrato
W - wide vibrato
tr - trill
TP - tremolo picking
T - tapping
S - slap
P - pop
< - fade in
^ - brush up
v - brush down
Tap to rate this tab
 
# A B C D E F G H I J K L M N O P Q R S T U V W X Y Z