Song name
# A B C D E F G H I J K L M N O P Q R S T U V W X Y Z

The Dear Hunter - Like Crazy tab

Maybe... just maybe, the chorus might be a little off, but everything is spot on I believe
If you want the chords for the verses someone else posted them, I think they're good :)
Any comments and/or suggestions are appreciated, and don't forget to rate!

Intro
e|-----------------------------------------------------|
B|-14--12-----------------------------------------14---|
G|--------14-11--14--13-14-------11--9--11/13--14------|
D|-------------------------11--9-----------------------|
A|-----------------------------------------------------|
E|-----------------------------------------------------|

e|-14-12-14--16-17--------14--12-16--------12----------|
B|-----------------14--12-----------14--12----14-------|
G|-----------------------------------------------------|
D|-----------------------------------------------------|
A|-----------------------------------------------------|
E|-----------------------------------------------------|

Verse 1
e|-----------------------------------------------------|
B|-----------------------------------------------------|
G|--------------------------------------------1-4------|
D|------------------4-7--------2h4---------------------|
A|-0-2-4-4-0-5----------4----------2p0-5----------4----|
E|-----------------------------------------------------|

Pre-Chorus
e|-2--0---------------------------------------------------------------------|
B|-3--0---------------------------------------------------------------------|
G|-4--1---2-2-4-4-5-5-9-9-7-7-7-7-7-7-2-2-4-4-4-4-4-4-4-4-4-4-4-4-4-4-4-4---|
D|-4--2---------------------------------------------------------------------|
A|-2--2---------------------------------------------------------------------|
E|----0---------------------------------------------------------------------|

Chorus
e||---5--------5-------5---------7----------5-5----------||
B||---5------6---6---7---------8----------6-----8-6-8----||
G||O--6----6-------7-----7---9----------7---------------O||
D||O--7--------------------9----------7-----------------O||
A||---7--------------------------------------------------||
E||------------------------------------------------------||
|
e||---0------------------0-------0----------1-1-0--------||
B||---2--------0-------0-------0----------3-------3-0----||
G||O--2------2---0---2-------0----------2---------------O||
D||O--2----3-------4-------2----------0-----------------O||
A||---0--------------------------------------------------||
E||------------------------------------------------------||

e|-3-3-3-3-3-3-3-3-3-3-3-3-0--------|
B|-3-3-3-3-3-3-3-3-3-3-3-3-0--------|
G|-0-0-0-0-0-0-0-0-0-0-0-0-1--------|
D|-0-0-0-0-0-0-0-0-0-0-0-0-2--------|
A|-2-2-2-2-2-2-2-2-2-2-2-2-2--------|
E|-3-3-3-3-3-3-3-3-3-3-3-3-0--------|

Post-Chorus
e|---------------------------------------------------------------|
B|-14--12------------------------------9-------------------------|
G|--------14-11--14--13-14-------11--9---------9-----------------|
D|-------------------------11--9---------11--9---11--------------|
A|---------------------------------------------------------------|
E|---------------------------------------------------------------|

Verse 2 (Notes in parenthesis are played underneath the last note in the previous bar)
e|---------------------------------------------------------------|
B|---------------------------------------------------------------|
G|-(6)-(9)-7------7-9-6------6-9-7------7-9-6---4-2--------------|
D|---------------------------------------------------------------|
A|-(4)-(7)-5------5-7-4------4-7-5------5-7-4---2-0--------------|
E|---------------------------------------------------------------|

Pre-Chorus
e|-2--0---------------------------------------------------------------------|
B|-3--0---------------------------------------------------------------------|
G|-4--1---2-2-4-4-5-5-9-9-7-7-7-7-7-7-2-2-4-4-4-4-4-4-4-4-4-4-4-4-4-4-4-4---|
D|-4--2---------------------------------------------------------------------|
A|-2--2---------------------------------------------------------------------|
E|----0---------------------------------------------------------------------|

Chorus
e||---5--------5-------5---------7----------5-5----------||
B||---5------6---6---7---------8----------6-----8-6-8----||
G||O--6----6-------7-----7---9----------7---------------O||
D||O--7--------------------9----------7-----------------O||
A||---7--------------------------------------------------||
E||------------------------------------------------------||
|
e||---0------------------0-------0----------1-1-0--------||
B||---2--------0-------0-------0----------3-------3-0----||
G||O--2------2---0---2-------0----------2---------------O||
D||O--2----3-------4-------2----------0-----------------O||
A||---0--------------------------------------------------||
E||------------------------------------------------------||

e|-3-3-3-3-3-3-3-3-3-3-3-3-----|
B|-3-3-3-3-3-3-3-3-3-3-3-3-----|
G|-0-0-0-0-0-0-0-0-0-0-0-0-----|
D|-0-0-0-0-0-0-0-0-0-0-0-0-----|
A|-2-2-2-2-2-2-2-2-2-2-2-2-----|
E|-3-3-3-3-3-3-3-3-3-3-3-3-----|

Bridge
e|---------------------------------2--2-2--2--2-2--2--2-2--2--2-2---|
B|-3--3-3--3--3-3--3--3-3--3--3-3--3--3-3--3--3-3--3--3-3--3--3-3---|
G|-4--4-4--4--4-4--4--4-4--4--4-4--2--2-2--2--2-2--2--2-2--2--2-2---|
D|-4--4-4--4--4-4--4--4-4--4--4-4--0--0-0--0--0-0--0--0-0--0--0-0---|
A|-2--2-2--2--2-2--2--2-2--2--2-2-----------------------------------|
E|------------------------------------------------------------------|

e|-2--2-2--2--2-2--2--2-2--2--2-2--3--3-3--3--3-3--0-0-0-0-0-0-0-0---|
B|-2--2-2--2--2-2--2--2-2--2--2-2--3--3-3--3--3-3--0-0-0-0-0-0-0-0---|
G|-2--2-2--2--2-2--2--2-2--2--2-2--4--4-4--4--4-4--1-1-1-1-1-1-1-1---|
D|-4--4-4--4--4-4--4--4-4--4--4-4--5--5-5--5--5-5--2-2-2-2-2-2-2-2---|
A|-4--4-4--4--4-4--4--4-4--4--4-4--5--5-5--5--5-5--2-2-2-2-2-2-2-2---|
E|-2--2-2--2--2-2--2--2-2--2--2-2--3--3-3--3--3-3--0-0-0-0-0-0-0-0---|

Re-Intro
e|-----------------------------------------------------|
B|-14--12-----------------------------------------14---|
G|--------14-11--14--13-14-------11--9--11/13--14------|
D|-------------------------11--9-----------------------|
A|-----------------------------------------------------|
E|-----------------------------------------------------|

e|-14-12-14--16-17--------14--12-16--------12----------|
B|-----------------14--12-----------14--12----14-------|
G|-----------------------------------------------------|
D|-----------------------------------------------------|
A|-----------------------------------------------------|
E|-----------------------------------------------------|

Pre-Chorus (The first two notes from the melody can be played as two 9th fret on the G 
string notes [E notes])
e|-(2)--(0)------------------------------------------------------------------------|
B|-(3)--(0)------------------------------------------------------------------------|
G|-(4)--(1)---2-2-4-4-5-5-9-9-7-7-7-7-7-7-2-2-4-4-4-4-4-4-4-4-4-4-4-4-4-4-4-4-4\---|
D|-(4)--(2)------------------------------------------------------------------------|
A|-(2)--(2)------------------------------------------------------------------------|
E|------(0)------------------------------------------------------------------------|

Chorus
e||-----------5-----------5-------5---------7----------5-5----------||
B||-------------5-------6---6---7---------8----------6-----8-6-8----||
G||O------5-------6---6-------7-----7---9----------7---------------O||
D||O----6---6-------7-----------------9----------7-----------------O|| x3
A||---7-------------------------------------------------------------||
E||-----------------------------------------------------------------||
|
e||-----------0---------------0-------------0--------1-1p0--------||
B||-------2-----2---------0-----0---------0--------3-------3------||
G||O----2---2-----2-----2---2-----2-----0--------2-----------2---O|| x3
D||O--2-------------2-2-------------2-2--------0-----------------O||
A||---------------------------------------------------------------||
E||---------------------------------------------------------------||

e|-3-3-3-3-3-3-3-3-3-3-3-3-0--------|
B|-3-3-3-3-3-3-3-3-3-3-3-3-2--------|
G|-0-0-0-0-0-0-0-0-0-0-0-0-2--------|
D|-0-0-0-0-0-0-0-0-0-0-0-0-2--------|
A|-2-2-2-2-2-2-2-2-2-2-2-2-0--------|
E|-3-3-3-3-3-3-3-3-3-3-3-3----------|
Tap to rate this tab
 
# A B C D E F G H I J K L M N O P Q R S T U V W X Y Z