Song name
# A B C D E F G H I J K L M N O P Q R S T U V W X Y Z

The Dear Hunter - Echo tab

-------------------------------------------------------------------------------
                             Echo - The Dear Hunter
-------------------------------------------------------------------------------
Tabbed by: ford.adm
E-mail:

Tuning: Standard EADGBE

Intro:                                                                  :x2
e|----------------------------------------------------|----------------------|
B|----------------------------------------------------|----------------------|
G|----------------------------------------------------|------12---12\--------|
D|-----------------------------------------9----------|------12---12\--------|
A|----7--7--------5h7-7------7--7-----9h11---11p9--7--|------10---10\--------|
E|0-0-------0--0--------0--0-------0------------------|----------------------|
                                                                                :x4
e|---------------------------------------------------------------------------|
B|---------------------------------------------------------------------------|
G|---------------------------------------------------------------------------|
D|-----------------------------------------9---------------------------------|
A|----7--7--------5h7-7------7--7-----9h11---11p9--7-------------------------|
E|0-0-------0--0--------0--0-------0-----------------------------------------|

Verse:1
   Gtr 1                                                                        x2
e|---------------------------------------------------------------------------|
B|---------------------------------------------------------------------------|
G|---------------------------------------------------------------------------|
D|-----------------------------------------9---------------------------------|
A|----7--7--------5h7-7------7--7-----9h11---11p9--7-------------------------|
E|0-0-------0--0--------0--0-------0-----------------------------------------|
 |
 | Gtr 2
e|---------------------------------------------------------------------------|
B|---------------------------------------------------------------------------|
G|---------------------------------------------------------------------------|
D|--2------------------------------------------------------------------------|
A|--2------------------------------------------------------------------------|
E|--0------------------------------------------------------------------------|

   Both: “Tongue to my teeth...”
e|---------------------------------------------------------------------------|
B|---------------------------------------------------------------------------|
G|--2------------5----------7------------------------------------------------|
D|--2------------5----5-----7----5----2--------------------------------------|
A|--0------------3----5-----5----5----2--------------------------------------|
E|--------------------3----------3----0--------------------------------------|

e|---------------------------------------------------------------------------|
B|---------------------------------------------------------------------------|
G|---------------------------------------------------------------------------|
D|-----------------------------------------9---------------------------------|
A|----7--7--------5h7-7------7--7-----9h11---11p9--7-------------------------|
E|0-0-------0--0--------0--0-------0-----------------------------------------|
 |


Repeat Verse 

   Both:
e|---------------------------------xxx--------xxx--------xxx--------xxx------|
B|---------------------------------xxx--------xxx--------xxx--------xxx------|
G|--2----5----------7---------9-9\-xxx---9-9\-xxx---9-9\-xxx---9-9\-xxx------|
D|--2----5----5-----7----5----9-9\-xxx---9-9\-xxx---9-9\-xxx---9-9\-xxx------|
A|--0----3----5-----5----5----7-7\-xxx---7-7\-xxx---7-7\-xxx---7-7\-xxx------|
E|------------3----------3---------xxx--------xxx--------xxx--------xxx------|


Chorus
    C   E         C             E               C               E               Bb              A
e|---------0-------------0-------------------0----------1---------0----------|
B|--1------0-----1-------0---------1---------0----------3---------2----------|
G|--0------1-----0-------1---------0---------1----------3---------2----------|
D|--2------2-----2-------2---------2---------2----------3---------2----------|
A|--3------2-----3-------2---------3---------2----------1---------0----------|
E|---------0-------------0-------------------0-------------------------------|

Post Chorus
   Ring out on E
e|---------------------------------------------------------------------------|
B|---------------------------------------------------------------------------|
G|---------------------------------------------------------------------------|
D|--2------------------------------------------------------------------------|
A|--2------------------------------------------------------------------------|
E|--0------------------------------------------------------------------------|

                                                                                        x4
e|---------------------------------------------------------------------------|
B|---------------------------------------------------------------------------|
G|---------------------------------------------------------------------------|
D|-5-5----5-----------------5-5---5-----------------5------------------------|
A|----------7-5---------5-7---------7-5---------5-7--------------------------|
E|--------------7-0-0-0-----------------7-0-0-0------------------------------|



e|---------------------------------------------------------------------------|
B|---------------------------------------------------------------------------|
G|---------------------------------------------------------------------------|
D|-5-5---------5-5----------5-5--------5-5------------8-8---------8-8--------|
A|------7-5---------7-5----------7-5--------7-5-----------10-8--------10-8---|
E|----------7------------7-----------7----------7--------------10----------10

e|---------------------------------------------------------------------------|
B|---------------------------------------------------------------------------|
G|-------------------------6-6-------6-6-------6-6-------6-6-----------------|
D|-8-8---------8-8-------------8-6-------8-6-------8-6-------8-6-------------|
A|-----10-8--------10-8------------8---------8---------8---------8-----------|
E|----------10----------10---------------------------------------------------|

                                               Ring out chords         x2
                                                          Em              Gm
e|-------------------------------------------------------|---0---------3-----|
B|-------------------------------------------------------|---0---------3-----|
G|-9-9---------9-9---------9-9---------9-9---------------|---0---------3-----|
D|-----11-9--------11-9--------11-9--------11-9----------|---2---------5-----|
A|----------11----------11----------11----------11-------|---2---------5-----|
E|-------------------------------------------------------|---0---------3-----|

Then Chorus again 





************************************

| /   slide up
| \   slide down
| h   hammer-on
| p   pull-off
| ~   vibrato
| +   harmonic
| x   Mute note
| b   Bend
| pb  Pre-bend
| br  Bend release
| pbr Pre-bend release
| brb Bend release bend

************************************
Tap to rate this tab
# A B C D E F G H I J K L M N O P Q R S T U V W X Y Z