The Dears - Omega Dog tab

	The Dears - Omega Dog
Album: Degeneration Street
Tuning: STANDARD

This is all I know to the song,if anyone can fill in the (???) parts and help with 
2:23 onwards that would be appreciated.


(0:00)Intro(no guitar)
e|---------------------------------------------------------------|
B|---------------------------------------------------------------|
G|---------------------------------------------------------------|
D|---------------------------------------------------------------|
A|---------------------------------------------------------------|
E|---------------------------------------------------------------|






(0:14) x4 Intro

e|---------------|------------------------------------------------|
B|-12---10-10-10-|--9---7--7-7------------------------------------|   
G|-11---11-11-11-|--9---7--7-7------------------------------------|  
D|-11---11-11-11-|--9---7--7-7------------------------------------|    
A|-9----9--9--9--|--7---5--5-5------------------------------------|    
E|---------------|------------------------------------------------|


(0:26)Verse

oh it happened at the same time
e|---------------|------------------------------------------------|
B|-12---10-10-10-|--9---7--7-7------------------------------------|   
G|-11---11-11-11-|--9---7--7-7------------------------------------|  
D|-11---11-11-11-|--9---7--7-7------------------------------------|    
A|-9----9--9--9--|--7---5--5-5------------------------------------|    
E|---------------|------------------------------------------------|


(0:29)Verse

it happened just a one time
e|---------------|------------------------------------------------|
B|-12---10-10-10-|--9---7--7-7------------------------------------|   
G|-11---11-11-11-|--9---7--7-7------------------------------------|  
D|-11---11-11-11-|--9---7--7-7------------------------------------|    
A|-9----9--9--9--|--7---5--5-5------------------------------------|    
E|---------------|------------------------------------------------|


(0:33)Verse

it happened
e|---------------|------------------------------------------------|
B|-12---10-10-10-|--9---7--7-7------------------------------------|   
G|-11---11-11-11-|--9---7--7-7------------------------------------|  
D|-11---11-11-11-|--9---7--7-7------------------------------------|    
A|-9----9--9--9--|--7---5--5-5------------------------------------|    
E|---------------|------------------------------------------------|

(0:36)Verse

to us
e|---------|------------------------------------------------------|
B|-9-9-9-9-|------------------------------------------------------|
G|-9-9-9-9-|--8-8-8-8---------------------------------------------|
D|-9-9-9-9-|--9-9-9-9---------------------------------------------|
A|-7-7-7-7-|--9-9-9-9---------------------------------------------|
E|---------|--7-7-7-7---------------------------------------------|






(0:39)Verse

it happened at the same time
e|---------------|------------------------------------------------|
B|-12---10-10-10-|--9---7--7-7------------------------------------|   
G|-11---11-11-11-|--9---7--7-7------------------------------------|  
D|-11---11-11-11-|--9---7--7-7------------------------------------|    
A|-9----9--9--9--|--7---5--5-5------------------------------------|    
E|---------------|------------------------------------------------|


(0:42)Verse

it happened just a one time
e|---------------|------------------------------------------------|
B|-12---10-10-10-|--9---7--7-7------------------------------------|   
G|-11---11-11-11-|--9---7--7-7------------------------------------|  
D|-11---11-11-11-|--9---7--7-7------------------------------------|    
A|-9----9--9--9--|--7---5--5-5------------------------------------|    
E|---------------|------------------------------------------------|


(0:46)Verse

it happened
e|---------------|------------------------------------------------|
B|-12---10-10-10-|--9---7--7-7------------------------------------|   
G|-11---11-11-11-|--9---7--7-7------------------------------------|  
D|-11---11-11-11-|--9---7--7-7------------------------------------|    
A|-9----9--9--9--|--7---5--5-5------------------------------------|    
E|---------------|------------------------------------------------|

(0:49)Verse

to us
e|---------|------------------------------------------------------|
B|-9-9-9-9-|------------------------------------------------------|
G|-9-9-9-9-|--8-8-8-8---------------------------------------------|
D|-9-9-9-9-|--9-9-9-9---------------------------------------------|
A|-7-7-7-7-|--9-9-9-9---------------------------------------------|
E|---------|--7-7-7-7---------------------------------------------|





(0:52)Chorus

pressed down,pressed down
e|--------|-------------------------------------------------------|
B|-7--7-7~|-7--7-7~-----------------------------------------------|
G|-6--6-6-|-6--6-6------------------------------------------------|
D|-7--7-7-|-7--7-7------------------------------------------------|
A|-5--5-5-|-5--5-5------------------------------------------------|
E|--------|-------------------------------------------------------|

(0:55)Chorus

shaking      together, oooooh
e|---------|------------------------------------------------------|
B|---------|------------------------------------------------------|
G|-8--8--8-|-10--10-10-10-10-10-----------------------------------|
D|-11-11-11|-11--11-11-11-11-11-----------------------------------|
A|-9--9--9-|-11--11-11-11-11-11-----------------------------------|
E|-7--7--7-|-9---9--9--9--9--9------------------------------------|

(1:00)Chorus

pressed down,pressed down
e|--------|-------------------------------------------------------|
B|-7--7-7~|-7--7-7~-----------------------------------------------|
G|-6--6-6-|-6--6-6------------------------------------------------|
D|-7--7-7-|-7--7-7------------------------------------------------|
A|-5--5-5-|-5--5-5------------------------------------------------|
E|--------|-------------------------------------------------------|

(1:03)Chorus

shaking      together, ooooooh
e|---------|------------------------------------------------------|
B|---------|------------------------------------------------------|
G|-8--8--8-|-10--10-10-10-10-10-----------------------------------|
D|-11-11-11|-11--11-11-11-11-11-----------------------------------|
A|-9--9--9-|-11--11-11-11-11-11-----------------------------------|
E|-7--7--7-|-9---9--9--9--9--9------------------------------------|

(1:08)Chorus

pressed down,pressed down
e|--------|-------------------------------------------------------|
B|-7--7-7~|-7--7-7~-----------------------------------------------|
G|-6--6-6-|-6--6-6------------------------------------------------|
D|-7--7-7-|-7--7-7------------------------------------------------|
A|-5--5-5-|-5--5-5------------------------------------------------|
E|--------|-------------------------------------------------------|

(1:11)Chorus

shaking all over(???)
e|----------------------------------------------------------------|
B|----------------------------------------------------------------|
G|----------------------------------------------------------------|
D|----------------------------------------------------------------|
A|----------------------------------------------------------------|
E|----------------------------------------------------------------|




(1:15-1:26)
break





(1:27)

do-do-do doooo    do-do doooooo
e|---------------|------------------------------------------------|
B|-12---10-10-10-|--9---7--7-7------------------------------------|   
G|-11---11-11-11-|--9---7--7-7------------------------------------|  
D|-11---11-11-11-|--9---7--7-7------------------------------------|    
A|-9----9--9--9--|--7---5--5-5------------------------------------|    
E|---------------|------------------------------------------------|

(1:30)

do-do-do doooo    do-do- do dooo
e|---------------|------------------------------------------------|
B|-12---10-10-10-|--9---7--7-7------------------------------------|   
G|-11---11-11-11-|--9---7--7-7------------------------------------|  
D|-11---11-11-11-|--9---7--7-7------------------------------------|    
A|-9----9--9--9--|--7---5--5-5------------------------------------|    
E|---------------|------------------------------------------------|

(1:33)

do-do-do doooo    do doooooo
e|---------------|------------------------------------------------|
B|-12---10-10-10-|--9---7--7-7------------------------------------|   
G|-11---11-11-11-|--9---7--7-7------------------------------------|  
D|-11---11-11-11-|--9---7--7-7------------------------------------|    
A|-9----9--9--9--|--7---5--5-5------------------------------------|    
E|---------------|------------------------------------------------|

(1:37)

to us
e|---------|------------------------------------------------------|
B|-9-9-9-9-|------------------------------------------------------|
G|-9-9-9-9-|--8-8-8-8---------------------------------------------|
D|-9-9-9-9-|--9-9-9-9---------------------------------------------|
A|-7-7-7-7-|--9-9-9-9---------------------------------------------|
E|---------|--7-7-7-7---------------------------------------------|




(1:40)Verse

oh it happened at the same time
e|---------------|------------------------------------------------|
B|-12---10-10-10-|--9---7--7-7------------------------------------|   
G|-11---11-11-11-|--9---7--7-7------------------------------------|  
D|-11---11-11-11-|--9---7--7-7------------------------------------|    
A|-9----9--9--9--|--7---5--5-5------------------------------------|    
E|---------------|------------------------------------------------|


(1:43)Verse

it happened just a one time
e|---------------|------------------------------------------------|
B|-12---10-10-10-|--9---7--7-7------------------------------------|   
G|-11---11-11-11-|--9---7--7-7------------------------------------|  
D|-11---11-11-11-|--9---7--7-7------------------------------------|    
A|-9----9--9--9--|--7---5--5-5------------------------------------|    
E|---------------|------------------------------------------------|


(1:46)Verse

oh it happened
e|---------------|------------------------------------------------|
B|-12---10-10-10-|--9---7--7-7------------------------------------|   
G|-11---11-11-11-|--9---7--7-7------------------------------------|  
D|-11---11-11-11-|--9---7--7-7------------------------------------|    
A|-9----9--9--9--|--7---5--5-5------------------------------------|    
E|---------------|------------------------------------------------|

(1:50)Verse

to us
e|---------|------------------------------------------------------|
B|-9-9-9-9-|------------------------------------------------------|
G|-9-9-9-9-|--8-8-8-8---------------------------------------------|
D|-9-9-9-9-|--9-9-9-9---------------------------------------------|
A|-7-7-7-7-|--9-9-9-9---------------------------------------------|
E|---------|--7-7-7-7---------------------------------------------|





(1:53)Chorus

pressed down,pressed down
e|--------|-------------------------------------------------------|
B|-7--7-7~|-7--7-7~-----------------------------------------------|
G|-6--6-6-|-6--6-6------------------------------------------------|
D|-7--7-7-|-7--7-7------------------------------------------------|
A|-5--5-5-|-5--5-5------------------------------------------------|
E|--------|-------------------------------------------------------|

(1:56)Chorus

shaking      together, oooooh
e|---------|------------------------------------------------------|
B|---------|------------------------------------------------------|
G|-8--8--8-|-10--10-10-10-10-10-----------------------------------|
D|-11-11-11|-11--11-11-11-11-11-----------------------------------|
A|-9--9--9-|-11--11-11-11-11-11-----------------------------------|
E|-7--7--7-|-9---9--9--9--9--9------------------------------------|

(2:01)Chorus

pressed down,pressed down
e|--------|-------------------------------------------------------|
B|-7--7-7~|-7--7-7~-----------------------------------------------|
G|-6--6-6-|-6--6-6------------------------------------------------|
D|-7--7-7-|-7--7-7------------------------------------------------|
A|-5--5-5-|-5--5-5------------------------------------------------|
E|--------|-------------------------------------------------------|

(2:04)Chorus

shaking      together, ooooooh
e|---------|------------------------------------------------------|
B|---------|------------------------------------------------------|
G|-8--8--8-|-10--10-10-10-10-10-----------------------------------|
D|-11-11-11|-11--11-11-11-11-11-----------------------------------|
A|-9--9--9-|-11--11-11-11-11-11-----------------------------------|
E|-7--7--7-|-9---9--9--9--9--9------------------------------------|

(2:09)Chorus

pressed down,pressed down
e|--------|-------------------------------------------------------|
B|-7--7-7~|-7--7-7~-----------------------------------------------|
G|-6--6-6-|-6--6-6------------------------------------------------|
D|-7--7-7-|-7--7-7------------------------------------------------|
A|-5--5-5-|-5--5-5------------------------------------------------|
E|--------|-------------------------------------------------------|


(2:12)Chorus
shaking      together, ooooooh
e|---------|------------------------------------------------------|
B|---------|------------------------------------------------------|
G|-8--8--8-|-10--10-10-10-10-10-----------------------------------|
D|-11-11-11|-11--11-11-11-11-11-----------------------------------|
A|-9--9--9-|-11--11-11-11-11-11-----------------------------------|
E|-7--7--7-|-9---9--9--9--9--9------------------------------------|


(2:17)Chorus
pressed down,pressed down
e|--------|-------------------------------------------------------|
B|-7--7-7~|-7--7-7~-----------------------------------------------|
G|-6--6-6-|-6--6-6------------------------------------------------|
D|-7--7-7-|-7--7-7------------------------------------------------|
A|-5--5-5-|-5--5-5------------------------------------------------|
E|--------|-------------------------------------------------------|



(2:20)
shaking all over(???)
e|----------------------------------------------------------------|
B|----------------------------------------------------------------|
G|----------------------------------------------------------------|
D|----------------------------------------------------------------|
A|----------------------------------------------------------------|
E|----------------------------------------------------------------|


Tap to rate this tab
 
# A B C D E F G H I J K L M N O P Q R S T U V W X Y Z