Song name
# A B C D E F G H I J K L M N O P Q R S T U V W X Y Z

The Death Letters - I Must Confess tab

Intro
-----6------6--------------------------------------|
--/8---8--6---6----6-------------------------------|
-----------------7---7--5--3-----------------------|
---------------------------------------------------|
---------------------------------------------------|
---------------------------------------------------|

---------------------------------------------------|
----3--------3-------------------------------------|
---3--3-3---3-3-3----2-------2---------------------|
--3----3---3---3----3-3-3---3-3-3------------------|
-1--------1--------3---3---3---3-------------------|
------------------1-------1------------------------|

Couplet 1 + 2
---------------------------------------------------|
----3-------3--------------------------------------|
------3-------3-----2-------2----------------------|
----------------------3-------3--------------------|
-1-1-----1-1---------------------------------------|
-----------------1-1-----1-1-----------------------|

Couplet 3
---------------------------------------------------|
---------------------------------------------------|
-3-33-3333-33-33-----------------------------------|
-3-33-3333-33-33-3-33-3333-33-33-------------------|
-1-11-1111-11-11-3-33-3333-33-33-------------------|
-----------------1-11-1111-11-11-------------------|

And when...
---------------------------------------------------|
---------------------------------------------------|
-3--3-3--1-----------------------------------------|
-3--3------3--3--3-3--1----------------------------|
-1--1---------3--3------3--------------------------|
--------------1--1---------------------------------|
Tap to rate this tab
 
# A B C D E F G H I J K L M N O P Q R S T U V W X Y Z