Song name
# A B C D E F G H I J K L M N O P Q R S T U V W X Y Z

The Death Of Anna Karina - Me And Wittgenstein Down The Street By The Schoolyard tab

This acts as the chorus and intro.
It was also the first tab I've ever posted.
I'll try to finish the song A.S.A.P.
And for those who don't know : / means slide.


e-----------------------------------------------|
B-----------------------------------------------|
G-----------------------------------------------|
D-----8-7-5-7-5-3-5-3-0-------8-7-5-7-5-3-5-3-0-|
A-5/0-------------------3/5-0-------------------|
E-----------------------------------------------|

or

e-------------------------------------------|
B-------------------------------------------|
G----3-2-0-2-0--0-----------3-2-0-2-0--0----|
D--------------3-3-0------------------3-3-0-|
A5/0------------------3/5-0-----------------|
E-------------------------------------------|


http://www.thedeathofannakarina.com/
http://www.myspace.com/thedeathofannakarina
Tap to rate this tab
 
# A B C D E F G H I J K L M N O P Q R S T U V W X Y Z