The Death Set - Its Another Day tab

Intro by keyboard:

E:------------------------------------10-----------|
H:-------11~~9~~--11~~----11~~-9~~-11--------------|
G:--11~~~-------11-----10----------------11~~------|
D:-------------------------------------------------|
A:-------------------------------------------------|
E:-------------------------------------------------|


Muted guitar:

E:-------------------------------------------------|
H:-------------------------------------------------|
G:-11-11-11-11-11-11-11-11-11-11-11-11-15-15-15-15-|
D:-11-11-11-11-11-11-11-11-11-11-11-11-15-15-15-15-|
A:-9--9--9--9--9--9--9--9--9--9--9--9--13-13-13-13-|
E:-------------------------------------------------|

E:-------------------------------------------------|
H:-------------------------------------------------|
G:-------------------------------------13-13-13-13-|
D:-11-11-11-11-11-11-11-11-11-11-11-11-13-13-13-13-|
A:-11-11-11-11-11-11-11-11-11-11-11-11-11-11-11-11-|
E:-9--9--9--9--9--9--9--9--9--9--9--9--------------|


E:-------------------------------------------------|
H:-------------------------------------------------|
G:-------------------------------------------------|
D:-13-13-13-13-13-13-13-13-13-13-13-13-15-15-15-15-|
A:-13-13-13-13-13-13-13-13-13-13-13-13-15-15-15-15-|
E:-11-11-11-11-11-11-11-11-11-11-11-11-13-13-13-13-|


E:-------------------------------------------------|
H:-------------------------------------------------|
G:-------------------------------------------------|
D:-13-13-13-13-13-13-13-13-13-13-13-13-13-13-13-13-|
A:-13-13-13-13-13-13-13-13-13-13-13-13-13-13-13-13-|
E:-11-11-11-11-11-11-11-11-11-11-11-11-11-11-11-11-|


Chorus: HEY HEY IT'S ANOTHER DAY......

E:-------------------------------------------------|
H:-------------------------------------------------|
G:-11-11-11-11-11-11-11-11-11-11-11-11-11-11-11-11-|
D:-11-11-11-11-11-11-11-11-11-11-11-11-11-11-11-11-|
A:-9--9--9--9--9--9--9--9--9--9--9--9--9--9--9--9--|
E:-------------------------------------------------|



E:-------------------------------------------------|
H:-------------------------------------------------|
G:-------------------------------------------------|
D:-11-11-11-11-11-11-11-11-11-11-11-11-11-11-11-11-|
A:-11-11-11-11-11-11-11-11-11-11-11-11-11-11-11-11-|
E:-9--9--9--9--9--9--9--9--9--9--9--9--9--9--9--9--|



E:-------------------------------------------------|
H:-------------------------------------------------|
G:-------------------------------------------------|
D:-13-13-13-13-13-13-13-13-13-13-13-13-13-13-13-13-|   2x
A:-13-13-13-13-13-13-13-13-13-13-13-13-13-13-13-13-|
E:-11-11-11-11-11-11-11-11-11-11-11-11-11-11-11-11-|


Solo:

E:-------------------------------------------------|
H:------------------------------14-----------------|
G:-11---13---15---13---15-16-15----15-16-15--------|
D:-------------------------------------------------|
A:-------------------------------------------------|
E:-------------------------------------------------|



E:-------------------------------------------------|
H:-------------------------------------------------|
G:-11---13---15---16-15----------------------------|
D:----------------------15~~13---------------------|
A:-------------------------------------------------|
E:-------------------------------------------------|

official site:  http://www.thedeathset.com/
Tap to rate this tab
 
# A B C D E F G H I J K L M N O P Q R S T U V W X Y Z