Song name
# A B C D E F G H I J K L M N O P Q R S T U V W X Y Z

The Demics - Oh Well tab

The Demics
"Oh Well" tab
Talk's Cheap EP

Intro/Chorus: (2x)

E|-----------------------------------------------------------------------------------------|
B|-----------------------------------------------------------------------------------------|
G|--------------7--7--7--7--9--9--9--9--7--7--7--7--------------------------7--7--7--7-----|
D|--7--7--7--7--7--7--7--7--9--9--9--9--7--7--7--7--7--7--7--7--5--5--5--5--7--7--7--7--7--|
A|--7--7--7--7--5--5--5--5--7--7--7--7--5--5--5--5--7--7--7--7--5--5--5--5--5--5--5--5--7--|
E|--5--5--5--5--------------------------------------5--5--5--5--3--3--3--3--------------5--|


Verse: (3x)

E|--------------------------------------------------|
B|--------------------------------------------------|
G|--------------------------------------------------|
D|--7--7--7--7--7--7--7--7--5--5--5--5--5--5--5--5--|
A|--7--7--7--7--7--7--7--7--5--5--5--5--5--5--5--5--|
E|--5--5--5--5--5--5--5--5--3--3--3--3--3--3--3--3--|

Pre-Chorus:

E|--------------------------------------------------|
B|--------------------------------------------------|
G|--------------7--7--7--7--------------------------|
D|--7--7--7--7--7--7--7--7--5--5--5--5--5--5--5--5--|
A|--7--7--7--7--5--5--5--5--5--5--5--5--5--5--5--5--|
E|--5--5--5--5--------------3--3--3--3--3--3--3--3--|

Lyrics:
Just another sunny day, pretending like there's rain.
Don't seem to get my way, again and again.
Shrugging my shoulders, and im out another like,
Something very apathetic.
Oh well, got my crazy passion, lock me inside of my room, Oh Well
Oh well, got my crazy passion, lock me inside of my room, Oh Well
I just wish to be left to myself
if i was a jar id be content upon the shelf
The only one there that unite us two together seems so unsympathetic
Oh well, got my crazy passion, lock me inside of my room, Oh Well
Oh well, got my crazy passion, lock me inside of my room, Oh Well!

In Order:
Intro (2x)
Verse (3x)
Pre-Chorus
Chorus
Verse (3x)
Pre-Chorus
Chorus

And there you go!
Tap to rate this tab
# A B C D E F G H I J K L M N O P Q R S T U V W X Y Z