Song name
# A B C D E F G H I J K L M N O P Q R S T U V W X Y Z

The Departure - All Mapped Out tab

I like this song. I hope you like this tab, it's only my second :)

standard tuning, eadgbe.

Guitar 1
------------------------    ------------------------|
------------------------    ------------------------|
------------------------    ------------------------|
------------------------ x3 then--------------------|
-88-8\------------------    ------------------------|
--------44-88-----------    -4444444444444-666------|

that's the intro, then it goes like this...

Guitar 2
---------------------------------|
---------------------------------|
-10-10---8-10-----8-10-8-10--8-8-|
-------10-------10----------8-8--|
---------------------------------|
---------------------------------|

Followed by Guitar 1
-------------------|
-------------------|
-------------------|			this call and response thing happens twice, then...
-------------------|
--88-8\---33---66--|
--------44---66----|

(then...)

Guitar 2
-----------------------------------------------------------|
-----------------------------8-9-8-9-----------------------|
-10-10---8-10-----8-10-8-10------------1010-1010-1010--8-8-|
-------10-------10---------------------1010-1010-1010--8-8-|
-----------------------------------------------------------|
-----------------------------------------------------------|

--------------------------------|
--------------------------------|
-----------------12(x13)-131213-|
-6(x13)888----------------------|
--------------------------------|
--------------------------------|

--------------------------------------------------------------|
-9(x7)------------9(x7)------------9(x7)------------9(x5)-9 ~-|
-----------8---8-----------8----------------8---8---------10~-|
--------10---8----------10---11-8--------10---8---------------|
--------------------------------------------------------------|
--------------------------------------------------------------|

then after a while
-11-13~---|
-13-13~---|
----------| x4, i think
----------|
----------|
----------|

then basically do about all of the above again, except the last bit, instead go like this:
--8(x a lot)-8/(long slide)
--9(x a lot)---------------

-20(xlots)------------------------------------------------|
----------------------------------------------------------|
--------------------  x4 (on the second one it's 12-10-13-| on the D string)
----------12-13-10----------------------------------------|
----------------------------------------------------------|
----------------------------------------------------------|

Then there's just drums and vocals for a while, you can clap if you really want to, it's 
to you.

for the end bit i've helpfully put both the guitar parts into one neat little tab bit,
but the high bit is "guitar 2", the low bit is "guitar 1":

---------------8----8-----13-13-     -------------------------|
---------------9----9-----13-13-     -------------------------|
-------------------------------- x3, then---------------------|
-----33--66-88---88-----33--66--     ---------33--66----------|
---44--66-------------44--66----     -44-44-44--66---1-1------|

That's it, as far as i'm concerned. If you find something wrong and have a burning
to inform me about it, i won't burden you with the task of e-mailing me since i rarely check
e-mails. Just leave a comment :D
Tap to rate this tab
# A B C D E F G H I J K L M N O P Q R S T U V W X Y Z