Song name
# A B C D E F G H I J K L M N O P Q R S T U V W X Y Z

The Derek Trucks Band - Down In The Flood tab

Down in The Flood
by The Derek Trucks Band

Open E tuning
Capo on 5
These are the basic parts I can pick up from the intro. He uses a slide for everything 
for the first part


E|---------------------------------------------------------------|
B|----------0-------------0------------0------------0------------|
G#|---------0--0----------0--0---------0--0---------0--0---------|
E|---------------------------------------------------------------|
B|---3---3---------2---2---------1--1--------0---0---------------|
E|-----0-------------0-------------0-----------0-----------------|
This repeats: Derek Uses a Pedal to loop this

E|---------------------------------------------------------------|
B|---------------------------------------------------------------|
G#|----/6--6-\5--6/8---\4--/6---\3---\1--------------------------|
E|---------------------------------------1/3---------------------|
B|---------------------------------------------------------------|
E|---------------------------------------------------------------|
Not too sure about the last part of the section above


E|-------5--\3-------5--\3---------------------------------------|
B|-------5--\3-------5--\3---------------------------------------|
G#|------5--\3-------5--\3---------------------------------------|
E|-------5--\3-------5--\3---------------------------------------|
B|-------5--\3-------5--\3---------------------------------------|
E|-------5--\3-------5--\3---------------------------------------|

h - hammer on
p - pull off
b - bend string up
r - release bend
/ - slide up
\ - slide down
v - vibrato (or ~)
t - right hand tap
x - play 'note' with heavy muting
Tap to rate this tab
 
# A B C D E F G H I J K L M N O P Q R S T U V W X Y Z