Song name
# A B C D E F G H I J K L M N O P Q R S T U V W X Y Z

The Devil Makes Three - Aces And Twos chords

Highlighted       Show chord diagrams
-----------------------------------------------------------------------------
	            ACES AND TWOS - The Devil Makes Three
-----------------------------------------------------------------------------
Tabbed by: ER


Tuning: Standard

This is my first tab. It's not 100% perfect, but it's pretty close. I figured it out 
mostly from the live performance video from KEXP
http://www.youtube.com/watch?v=6JQB3---pTg



INTRO
e|--------------------------------------------------------------------------|
B|--------------------------------------------------------------------------|
G|--------------------------------------------------------------------------|
D|--------0-3-3--------0-33-0-------0-3-3-00-5-0-3-------0------------------|
A|----0-3----------0-3----------0-3----------------3-0-3--------------------|
E|--3------------3------------3---------------------------------------------|

INTRO CHORDS

G  D  A  G

RIFF 1
e|---------------------|
B|---------------------|
G|---------------------|
D|--3-0-----3-0-5-3-0--|
A|------3-0------------|
E|---------------------|


VERSE
D
In my dreams I laugh and smoke

Everybody screams when I tell them jokes
         G			F
Well now I like to gamble but I sure don't ever lose
      D
Got a closet full of pin striped three piece suits

CHORUS
               A
I tell ya now, I pull aces
G
You pull twos
             RIFF 1					D
Come on now, when I wake up I don't know what to do

Verse
I battle demons in the dead of the night
I don't come home until the sun shines bright
Well now I walk with Jesus
Is he walking with me?
So hard to tell when everybody's on the same streets

Chorus
I tell ya now, I pull aces
He pulls twos
Come on now, when I wake up I don't know what to do

SOLO CHORDS

D  G  D  A  G x2 RIFF 1

Verse
I drive a Cadillac a million miles long
In the back you can't hear my radio on
I only woke up to give a spoonful to you
But in my dreams a spoonful sure won't do

Chorus
I tell ya now, I pull aces
He does too
Come on now, when I wake up I don't know what to do

Verse
I battle demons in the dead of the night
I don't come home until the sun shines bright
I walk with Jesus
Is he walking with me?
It's so hard to tell when everybody's on the same streets

Chorus
I tell ya now, I pull aces
He does too
Come on now, when I wake up I don't know what to do


SOLO/OUTRO

D  G  D  A  G  RIFF 1
Tap to rate this tab
# A B C D E F G H I J K L M N O P Q R S T U V W X Y Z