Song name
# A B C D E F G H I J K L M N O P Q R S T U V W X Y Z

The Devil Wears Prada - Spongebob Grindpants tab

Artist-The Devil Wears Prada

Song-Spongebob Grindpants

Tuning-Drop D  (D-A-D-G-B-e)

Tabbed by Joe Bieke


           LEGEND
        --------------
      PM - Palm Muting
       / - Slide Down
       \ - Slide Up
       h - Hammer on
       ~ - Let Note(s) Ring
      TP - Tremelo Pick (Really Fast Picking)

 
e|-----------|-----------------|
B|-----------|-----------------|
G|-----------|--10-10-10-10-10-|
D|--0--1--3--|--9--9--9--9--9--|
A|--0--1--3--|--8--8--8--8--8--|
D|--0--1--3--|-----------------|
 PM .  .  .
                                                    TP
e|------------------------------------------------------|
B|------------------------------------------------------|
G|--9--\--10-\--11-\--12~---13--\--14--\--15--\--16-18--|
D|--8--\--9--\--10-\--11~---12--\--13--\--14--\--15-17--|
A|--7--\--8--\--9--\--10~---11--\--12--\--13--\--14-16--|
D|------------------------------------------------------|
   
   Little end flute thingy
e|---------------------------------|
B|--16-14-16-18-16-18-14-----------|
G|-----------------------14h16-18--|
D|---------------------------------|
A|---------------------------------|
D|---------------------------------|
Tap to rate this tab
# A B C D E F G H I J K L M N O P Q R S T U V W X Y Z