Guitaretab - guitar tabs
Song name
# A B C D E F G H I J K L M N O P Q R S T U V W X Y Z

The Devil Wears Prada - This Song Is Called tab

                      Almost Always
    (if it couldn't be a band name, it's gonna be song name)

                              
e|--------------------------------------------------------------------|
B|--------------------------------------------------------------------|
G|--------------------------------------------------------------------| 2x's
D|--------------------------------------------------------------------|
A|-0-0-------------0-0-------------0-0-------------0-0----------------|
D|-0-0-8p0-7p0-5p0-0-0-8p0-7p0-5p0-0-0-8p0-7p0-5p0-0-0-8p0-7p0-10p0---|
   . .             . .             . .             . .            

e|----------------------------------------|
B|----------------------------------------|
G|----------------------------------------| 2x's
D|----------------------------------------|
A|-0-0-8-7-5-0-0-8-7-5-0-0-8-7-8-10-8-7-5-|
D|-0-0-------0-0-------0-0----------------|
   . .       . .       . . 

e|------------------------------------------|
B|------------------------------------------|
G|------------------------------------------| 2x's
D|------------------------------------------|
A|-0-0-8-7----0-0-8-7----0-0-8-7-8-10-8-7-5-|
D|-0-0-----10-0-0-----10-0-0----------------|
   . .        . .        . .

e|---------------------------------------------------------------------------|
B|---------------------------------------------------------------------------|
G|---------------------------------------------------------------------------| 
D|-00-000-000-000-088-888-888-888-877-777-777-777-71010-101010-101010-101010-|
A|-00-000-000-000-088-888-888-888-877-777-777-777-71010-101010-101010-101010-|
D|-00-000-000-000-088-888-888-888-877-777-777-777-71010-101010-101010-101010-|
   .. ... ... ... ... ... ... ... ... ... ... ... ..... ...... ...... ......
[ Tab from: http://www.guitaretab.com/t/the-devil-wears-prada/101975.html ]
e|---------------------------------------------------------------------------|
B|---------------------------------------------------------------------------|
G|---------------------------------------------------------------------------| 
D|-00-000-000-000-088-888-888-888-877-777-777-777-71010-101010-101212-121212-|
A|-00-000-000-000-088-888-888-888-877-777-777-777-71010-101010-101212-121212-|
D|-00-000-000-000-088-888-888-888-877-777-777-777-71010-101010-101212-121212-|
   .. ... ... ... ... ... ... ... ... ... ... ... ..... ...... ...... ......

e|---------------------------------------------------------|
B|---------------------------------------------------------|
G|---------------------------------------------------------| 
D|-------------------------------10-8-7-8------------------|
A|-0-0-8-7-5-0-0-8-7-5-0-0-8-7-8---------------------------|
D|-0-0-------0-0-------0-0---------------------------------|
   . .       . .       . .                

e|---------------------------------------------------------|
B|---------------------------------------------------------|
G|---------------------------------------------------------| 
D|-------------------------------10-8-7-8b-----------------|
A|-0-0-8-7-5-0-0-8-7-5-0-0-8-7-8---------------------------|
D|-0-0-------0-0-------0-0---------------------------------|
   . .       . .       . .                

Right here theres gonna be a really mellow part with piano.
probably synthesized depending on wut we want it to sound
like.



e|------------------------------------------------------------|
B|------------------------------------------------------------|
G|------------------------------------------------------------| 2x's
D|-0-0-0-0-0-00000-0-0-0-0-0-0000-0-0-0-0-0-00000-0-0-0-0-00--|
A|-0-0-0-0-0-00000-0-0-0-0-0-0000-0-0-0-0-0-00000-0-0-0-0-00--|
D|-0-0-0-0-0-00000-0-0-0-0-0-0000-0-0-0-0-0-00000-0-0-0-0-00--|
   . . . . . ..... . . . . . .... . . . . . ..... . . . . ..

drum fill (if at all possible)

e|------------------------------------------------------|
B|------------------------------------------------------|
G|------------------------------------------------------| 
D|-8---------10---------5-------------------------------|
A|-8-(16x's)-10-(16x's)-5-(32x's)-----------------------|
D|-8---------10---------5-------------------------------|


e|------------------------------------------------------|
B|------------------------------------------------------|
G|------------------------------------------------------| 
D|-8---------10---------5---------0-0-0-00--------------|
A|-8-(16x's)-10-(16x's)-5-(16x's)-0-0-0-00--------------|
D|-8---------10---------5---------0-0-0-00--------------|
                                  . . . .
Related for This Song Is Called tab
Advertisement will be closed in 10 seconds