Song name
# A B C D E F G H I J K L M N O P Q R S T U V W X Y Z

The Devil Wears Prada - Number Three Never Forget tab

Hello. This is my first submitted tab. I think it is correct for the most part. I 
nobody seems to have tabbed out this excellent song. So here it is:

Song: Number Three Never Forget
Artist: The Devil Wears Prada
Tabbed by: Doug Coleman

0:01-0:20
You've compromised your doctrines...
e|---------------------------------|
b|---------------------------------|
g|---------------------------------|
d|-8-------10-------0~--0~--0~--0~-| X2
a|-8-(x12)-10-(x12)-0~--0~--0~--0~-|
D|-8-------10-------0~--0~--0~--0~-|

lead riff
e|---------------------------------------------|
b|-----11p10-----------------13-------------15-|
g|-10---------10/12-12-14-15---14--10/12/15----|
d|---------------------------------------------|
a|---------------------------------------------|
D|---------------------------------------------|

e|-----------------------------------------------|
b|-----11p10-------------------------------------|
g|-10--------10/12-12-14-15----------------------|
d|--------------------------15-14-12----12-------|
a|-----------------------------------15----15-12-|
D|-----------------------------------------------|

0:21-0:27
Come back to your faith, come back to grace...
e|----------------------------------------------|
b|----------------------------------------------|
g|-14----------------14----------------14-------|
d|--X-(x10)--0-0-0-0--X-(x10)-0-0-0-0---X-(x10)-|
a|-12--------0-0-0-0-12-------0-0-0-0--12-------|
D|-----------0-0-0-0----------0-0-0-0-----------|

0:28-0:43
e|----------------|---------------------------------------|
b|----------------|---------------------------------------|
g|----------------|---------------------------------------|
d|-000--000--000--|-000--000--0--0--000--000--------------|
a|-000--000--000--|-000--000--0--0--000--000--5h8p5-4h7p4-|
D|-000--000--000--|-000--000--0--0--000--000--------------|
                                              (End 2nd time w/ this)
e|---------------------------------------|    |----------------|
b|---------------------------------------|    |----------------|
g|---------------------------------------|    |----------------|
d|-000--000--0--0--000--000--------------| X2 |----------------|
a|-000--000--0--0--000--000--8--5--7--4--|    |-8--5--7--4--5~-|
D|-000--000--0--0--000--000--------------|    |----------------|

He sang with us
Gt.1  0:44-0:58                Gt.2  0:44-0:58
e|---------------------|      |-------------10^11-(x10)-|
b|---------------------|      |-------------------------|
g|-------------7b------|      |-------------------------|
d|-0~----0~----X-(x10)-| X2   |-0~----0~----------------| X2
a|-0~----0~----5-------|      |-0~----0~----------------|
D|-0~----0~------------|      |-0~----0~----------------|

0:59-1:26
The death of obsession
e|-----------------------|
b|-----------------------|
g|-----------------------|
d|-8------5------0-------| X2
a|-8-(x8)-5-(x8)-0-(x16)-|
D|-8------5------0-------|

1:27-1:52
Such blackness portrays the love of a machine
Gt.1
e|------------------------------------------------------------------------|
b|------------------------------------------------------------------------|
g|-14-14--14-14--14-14--14-14--14--14--12-12--12-12--12-12--12-12--12--12-|
d|--X--X---X--X---X--X---X--X---X---X---X--X---X--X---X--X---X--X---X---X-|
a|-12-12--12-12--12-12--12-12--12--12--10-10--10-10--10-10--10-10--10--10-|
D|------------------------------------------------------------------------|

e|----------------------------------------------------|
b|-------------------------------------------------10-|
g|-10-10--10-10--10-10--10-10--10--10--10-9-7---------|
d|-X--X---X--X---X--X---X--X---X---X----------10-8----|
a|-8--8---8--8---8--8---8--8---8---8------------------|
D|----------------------------------------------------|

Gt.2
e|--------------------------------------------------------------------------|
b|--------------------------------------------------------------------------|
g|--------------------------------------------------------------------------|
d|-8-8--8-8--8-8--8-8--8-8--8--5-5--5-5--5-5--5-5--5-5--5--0--0-0--0-0--0-0-|
a|-8-8--8-8--8-8--8-8--8-8--8--5-5--5-5--5-5--5-5--5-5--5--0--0-0--0-0--0-0-|
D|-8-8--8-8--8-8--8-8--8-8--8--5-5--5-5--5-5--5-5--5-5--5--0--0-0--0-0--0-0-|

1:53-1:58
e|------------------------------|
b|------------------------------|
g|------------------------------|
d|-0-0-0-0-0-0-0-0--0-0-0-0-0-0-| X2
a|-0-0-0-0-0-0-0-0--0-0-0-0-0-0-|
D|-0-0-0-0-0-0-0-0--0-0-0-0-0-0-|

1:59-2:12
So how can you be so proud?
e|--------------------------------|
b|--------------------------------|
g|--------------------------------|
d|-0-0-0-0-0-0-0-0~--0-0-0-0-0-0~-| X4
a|-0-0-0-0-0-0-0-0~--0-0-0-0-0-0~-|
D|-0-0-0-0-0-0-0-0~--0-0-0-0-0-0~-|

2:13-2:16
Pray to the heavens...
e|------------------------|
b|------------------------|
g|------------------------|
d|-8--7--5--7--5--3--5--8-|
a|-8--7--5--7--5--3--5--8-|
D|-8--7--5--7--5--3--5--8-|

2:18-2:46
With whatever it takes
e|---------------------------------|
b|---------------------------------|
g|--------------10-10-10--10-10-10-|
d|-0--8-8-7--0--X--X--X---X--X--X--|
a|-0--8-8-7--0--8--8--8---8--8--8--|
D|-0--8-8-7--0---------------------|

e|-------------------------------------------------------|
b|-------------------------------------------------------|
g|-------------------------------------------------------|
d|------------------------------------5-7-8------5-------|  X2
a|------------------------------------5-7-8-(x8)-5-(x8)--|
D|-8p0-7p0-5p0-8p0-7p0-5p0-5-7-8------5-7-8------5-------|

                                      (End part with this)
e|---------------------------------|    |--------------|
b|---------------------------------|    |--------------|
g|--------------10-10-10--10-10-10-|    |--------------|
d|-0--8-8-7--0--X--X--X---X--X--X--| X3 |-0--8-8-7--10-|
a|-0--8-8-7--0--8--8--8---8--8--8--|    |-0--8-8-7--10-|
D|-0--8-8-7--0---------------------|    |-0--8-8-7--10-|

2:47-2:56
e|----------------------------------|
b|----------------------------------|
g|----------------------------------|
d|-0----0----8----8~----------------|
a|-0----0----8----8~--(pick scrape)-|
D|-0----0----8----8~----------------|

2:57-3:14
I wish to shine this light back upon you
e|-------------------------------------------|
b|-------------------------------------------|
g|-------------------------------------------|
d|-------------------------------------------| X4
a|-----8-8p7---7-7h8------8-8p7-10-8p7h8p7/5-|
D|-0-0-------0--------0-0--------------------|

3:15-3:33
You've compromised your doctrines
e|--------------------------------------------------------|
b|--------------------------------------------------------|
g|--------------------------------------------------------|
d|-8-------10-------0~--0~--0~--0~--8-------10-------0--0-|
a|-8-(x12)-10-(x12)-0~--0~--0~--0~--8-(x12)-10-(x12)-0--0-|
D|-8-------10-------0~--0~--0~--0~--8-------10-------0--0-|


Lyrics:
You've compromised your doctrines
You've surrendered yourself to fashion.
Come back to your faith; Come back to grace.
He sang with us and loved others.
The death of obsession.
The blood relationship, creates such a rotten demise.
Oh Lord.
Such blackness portrays the love of a machine.
I did not want you to join this culture.
So how can you be so proud?
Pray to the heavens, with whatever it takes.
I wish to shine this light back upon you.
It's obvious that apocalyptic barriers (will give) no mercy to fashion.
You've compromised your doctrines.
You've surrendered yourself now.
Tap to rate this tab
 
# A B C D E F G H I J K L M N O P Q R S T U V W X Y Z