Song name
# A B C D E F G H I J K L M N O P Q R S T U V W X Y Z

The Devil Wears Prada - Danger Wildman tab

-------------------------------------------------------------------------------
	            Danger: Wildman - The Devil Wears Prada
-------------------------------------------------------------------------------
Tabbed by: Jacob Parker (xJPx83x)
Email: xjpx83x@gmail.com

Tuning: Drop D

Tips: On the alternating palm muting parts strum up and down and palm mute on 
your down strums to get the right pattern.

e|---------------------------------------------------------|
B|---------------------------------------------------------|
G|-7-7------------------------7-7--------------------------|
D|-x-x--000-00000000-0-000000-x-x--000-00000000-0-000000---|
A|-5-5--000-00000000-0-000000-5-5--000-00000000-0-000000---|
D|------000-00000000-0-000000------000-00000000-0-000000---|
        ..  . . . .    ......      ..  . . . .    ......

e|---------------------------------------------------------|
B|---------------------------------------------------------|
G|-6-6------------------------6-6--------------------------|
D|-x-x--000-00000000-0-000000-x-x--000-00000000-0-000000---|
A|-4-4--000-00000000-0-000000-4-4--000-00000000-0-000000---|
D|------000-00000000-0-000000------000-00000000-0-000000---|
        ..  . . . .    ......      ..  . . . .    ......

e|---------------------------------------------------------|
B|---------------------------------------------------------|
G|-7-7------------------------7-7--------------------------|
D|-x-x--000-00000000-0-000000-x-x--000-00000000-0-000000---|
A|-5-5--000-00000000-0-000000-5-5--000-00000000-0-000000---|
D|------000-00000000-0-000000------000-00000000-0-000000---|
        ..  . . . .    ......      ..  . . . .    ......

e|---------------------------------------------------------|
B|---------------------------------------------------------|
G|-6-6------------------------6-6--------------------------|
D|-x-x--000-00000000-0-000000-x-x--000-00000000-0-000000---|
A|-4-4--000-00000000-0-000000-4-4--000-00000000-0-000000---|
D|------000-00000000-0-000000------000-00000000-0-000000---|
        ..  . . . .    ......      ..  . . . .    ......


| x  Mute note
===============================================================================
Tap to rate this tab
 
# A B C D E F G H I J K L M N O P Q R S T U V W X Y Z