Song name
# A B C D E F G H I J K L M N O P Q R S T U V W X Y Z

The Devil Wears Prada - I Hate Buffering tab

I know the song is written in Drop B, but this tab is done in Drop D.
Sounds almost the same, and i thought other people might appreciate the song in Drop D.

---------------------------------------------------------------------------
			     I Hate Buffering - The Devil Wears Prada
---------------------------------------------------------------------------
Tabbed by: Boxiii
Email: hobocloud@gmail.com

e|--------------------------------------------------------------------------|
B|--------------------------------------------------------------------------|
G|7----------7/10--10--------10/9-9--------9/6--6---------------------------|
D|x--000-----x/x----x--000----x/x-x--000---x/x--x---------------------------|
A|5--000-x6--5/8----8--000x2--8/7-7--000x2-7/4--4---------------------------|
D|---000---------------000-----------000------------------------------------|
     ...               ...           ...
e|--------------------------------------------------------------------------|
B|--------------------------------------------------------------------------|
G|-------7/10-10--------10/9-9--------9/10-10-------------------------------|
D|000----x/x---x--000----x/x-x-000----x/x---x----000------------------------|
A|000x6--5/8---8--000x2--8/7-7-000x2--7/8---8----000x6----------------------|
D|000-------------000----------000---------------000------------------------|
  ...             ...          ...               ...
e|--------------------------------------------------------------------------|
B|--------------------------------------------------------------------------|
G|10/14-14---------14/12-12----------12/9-9---------------------------------|
D|-x/-x--x--000-----x/-x--x--000------x/x-x---000---------------------------|
A|-8/12-12--000x2--12/10-10--000x2---10/7-7---000x6-------------------------|
D|----------000--------------000--------------000---------------------------|
            ...              ...              ...
e|--------------------------------------------------------------------------|
B|--------------------------------------------------------------------------|
G|10/14-14---------14/12-12----------12/7-7---------------------------------|
D|-x/-x--x--000-----x/-x--x--000------x/x-x---------------------------------|
A|-8/12-12--000x2--12/10-10--000x2---10/5-5---------------------------------|
D|----------000--------------000--------------------------------------------|
            ...              ...
e|--------------------------------------------------------------------------|
B|--------------------------------------------------------------------------|
G|----7---------------------------------------------------------------------|
D|0---x--0--------------------------------0------0-0--0-0-------------------|
A|0---5--0----------10-12-8-10-7-8-5-7----0------0-0--0-0-------------------|
D|0------0--------------------------------0------0-0--0-0-------------------|
  .      .         ^(tremelo palm mute)^  .        .
(figure out pattern for mutes)

e|--------------------------|-first time-----|-second time-----|
B|--------------------------|----------------|-----------------|
G|10-------12--------14-----|-14/15/14/10/12-|--9h10p9----7~---|(x2)
D|x-(x8)----x-(x8)----x(x8)-|--x/-x/-x/-x/-x-|---------10------|
A|8--------10--------12-----|-12/13/12/-8/10-|-----------------|
D|--------------------------|----------------|-----------------|

e|-------Other guitar----------------------------|
B|-----------------------------------------------|
G|-7---------------------------------------------|
D|-x--------(with a bend now and then)-----------|
A|-5---------------------------------------------|
D|-----------------------------------------------|

e|---------|---|-----(this)-------|---(or this)----------|Either of these
B|---------|---|------------------|--------13--13--------|work after two
G|---------|---|---------17-------|10--10----------------|of the first part
D|0-0---00-|(x2)--14------x(x4)---|--14--14--14--14------|
A|0-0---00-|---|--12(x4)-15-------|----------------------|
D|0-0---00-|---|------------------|----------------------|
    .

e|--------------------------------------------------------------------------|
B|--------------------------------------------------------------------------|
G|--------------------------------------------------------------------------|
D|0~--p/----8-7-0-00------------0-0-0--000---8-0-0--------0-0--10-0-0-------|
A|0~--p/----8-7-0-00---12-10-8--0-0-0--000x2-8-0-0--10-12-0-0--10-0-0-12-15-|
D|0~--p/----8-7-0-00-----0--0---0-0-0--000---8-0-0----0---0-0--10-0-0---0---|
                  ..     .  .   . . .  ...     . .    .   . .     . .   .

e|--------------------------------------------------------------------------|
B|--------------------------------------------------------------------------|
G|--------------------------------------------------------------------------|
D|-00-0-00-----------0-0-0--000---0-00-10---00-0-00-8----0-0-0--------------|
A|-00-0-00--12-10-8--0-0-0--000x2-0-00---12-00-0-00--12--0-0-0---+10--------|
D|-00-0-00----0--0---0-0-0--000---0-00------00-0-00------0-0-0--------------|
   ..   ..    .  .   . . .  ...     ..      ..   ..      . . .
e|--------------------------------------------------------------------------|
B|--------------------------------------------------------------------------|
G|--------------------------------------------------------------------------|
D|0-0-0--000------------10-----------8------0-0-0-------0-0-0-000-----------|
A|0-0-0--000x2------------12----------12----0-0-0-+10---0-0-0-000x2---------|
D|0-0-0--000-----0-0-0-------0-0-0----------0-0-0-------0-0-0-000-----------|
  . . .  ...     . . .       . . .          . . .       . . . ...
e|--------------------------|-----------------------|--{21}-----------------|
B|--------------------------|-----------------------|-----{21}--------------|
G|--------------------------|-----------------------|---------{21}----------|
D|------10------------8-----|(x2)----0~----00--0-0-0|(x2)---------{21}------|
A|--------12-----------12---|--------0~----00--0-0-0|-----------------------|
D|0-0-0--------0-0-0--------|--------0~----00--0-0-0|-----------------------|
  . . .        . . .                       ..  . . .

e|------------------------------------|------------|
B|------------------------------------|------------|
G|------------------------------------|------------|
D|8------10-------12--------10--------|(x4)--------|
A|8(x16)-10(x16)--12(x16)---10(x16)---|------------|
D|8------10-------12--------10--------|------------|

The ending is...
e|---------|---|-----(this)-------|---(or this)----------|Either of these
B|---------|---|------------------|--------13--13--------|work after two
G|---------|---|---------17-------|10--10----------------|of the first part
D|0-0---00-|(x2)--14------x(x4)---|--14--14--14--14------|
A|0-0---00-|---|--12(x4)-15-------|----------------------|
D|0-0---00-|---|------------------|----------------------|
    .
...with some pull offs on a low note towards the end.

{ } =Harmonic
+   =Pinch
Tap to rate this tab
 
# A B C D E F G H I J K L M N O P Q R S T U V W X Y Z