Song name
# A B C D E F G H I J K L M N O P Q R S T U V W X Y Z

The Devil Wears Prada - Louder Than Thunder tab

-------------------------------------------------------------------------------
			     Louder Than Thunder-The Devil Wears Prada
-------------------------------------------------------------------------------
This is my first tab. It should be about 99% correct. If you find any problems let me know.
I haven't figured out the solo yet. I will put it up once I get it done.
Tuning:Drop D
Intro:
e|--10---9---7------------------------------------------------------5-------------|
B|-----------------7---7----10---12---12--14--15--14---7---5--7-------------------|
G|--------------------------------------------------------------------------------|
D|--------------------------------------------------------------------------------|
A|--------------------------------------------------------------------------------|
D|--------------------------------------------------------------------------------|
Verse:
e|------------------------------------------------------------------------------|
B|------------------------------------------------------------------------------|
G|------------------------------------------------------------------------------|
D|---9------------5------------9-------5----------------------------------------|(x2)
A|---9------------5------------9-------5----------------------------------------|
D|---9------------5------------9-------5----------------------------------------|
Pre-Chorus Riff:
e|----------------------------|
B|----12--14--15--17--19--22--|
G|----------------------------|
D|----------------------------|
A|----------------------------|
D|----------------------------|
Chorus
e|---------------------------------------------------------------------------------|
B|---------------------------------------------------------------------------------|
G|---------------------------------------------------------------------------------|
D|----5-----2-----9----7-----------------------------------------------------------|
A|----5-----2-----9----7-----------------------------------------------------------|(x2)
D|----5-----2-----9----7-----------------------------------------------------------|

Verse/Chorus to end
Tap to rate this tab
 
# A B C D E F G H I J K L M N O P Q R S T U V W X Y Z