Song name
# A B C D E F G H I J K L M N O P Q R S T U V W X Y Z

The Devil Wears Prada - Danger Wildman tab

Help us improve GuitareTab! Take a short survey!
I did my best and i'm pretty sure everything is very close to the track

No one has this whole song out now so someone had to do it!

Tremolo: ^^^
Vibrato: ~~
slide:  /
Pick slide: **

Drop D

Intro:       0:00-0:32
E------|------------------------------------------|
B------|------------------------------------------|
G------|-5-7-7-----------5-7-7--------------------|
D--0---|------------------------------------------|
A--0---|-3/5-5-----------3/5 5--------------------|
D--0---|-------000-0000--------000-0000-----------|

E-------------------------------------------------|
B-------------------------------------------------|
G--5-6-6----------5-6-6---------------------------|
D-------------------------------------------------|
A--3/4-4----------3/4-4---------------------------|
D--------000-0000-------000-0000------------------|

E----------------------------------------------------|
B----------------------------------------------------|
G--9-10-10--------9-10-10----------------------------|
D----------------------------------------------------|
A--7/8-8----------7/8--8-----------------------------|
D--------000-0000----------000-0000------------------|

E-------------------------------------------------|
B-------------------------------------------------|
G--5-6-6----------5-6-6---------------------------|
D-------------------------------------------------|
A--3/4-4----------3/4-4---------------------------|
D--------000-0000-------000-0000------------------|

VERSE:  0:33 - 0:59
          OPEN D WITH RHYTHM
E----------------------------------------------|
B----------------------------------------------|
G----------------------------------------------|
D--0-------------------------------------------|
A--0-------------------------------------------|
D--0-------------------------------------------|
   The second half of the open D's being played this is played in the back:
   it comes in at 0:47 - 0:59
 Trem:^^^^^^^^^^^^^^^^^^^^^^^^^^^^^^^^^^^^^^
E----------------------------------------------|
B----------------------------------------------|
G----------------------------------------------|
D----------------------------------------------|
A------8-7-10-13-8-7-5-13-15-------------------|
D----------------------------------------------|
Chorus:      1:00-1:19                 Let open D ring
E---------------------------------|----------------|
B---------------------------------|----------------|
G---------------------------------|----------------|
D----0------5------8--------5-----|--0~~-----*-----|
A----0------5------8--------5-----|--0~~-----*-----|
D----0------5------8--------5-----|--0~~-----*-----|

Octave Part:  1:20-1:31
E|-------------------------------------------------|
B|-------------------------------------------------|
G|----7---12--10--9/10--7--9-10-7--6---------------|
D|-------------------------------------------------|
A|----5---10--8---7/8---5--7-8--5--4---------------|
D|-------------------------------------------------|

E-----------------------------------------------|
B-----------------------------------------------|
G----7---12--10--9/10--7--9-10-7/6/7------------|
D-----------------------------------------------| REPEAT ONCE
A----5---10--8---7/8---5--7-8--5/4/5------------|
D-----------------------------------------------|

16th notes: 1:32- 1:44

E--------------------------------------------|
B--------------------------------------------|
G--------------------------------------------|
D--------------------------------------------| REPEAT 4 times
A-----------------4321------0----------------|
D-0000-0000-0000-------0000------------------|
  1E+A.........
Little Bridge part: 1:44-1:47

E---------------------------------------------------|
B---------------------------------------------------|
G--10-10-10-10-10-10-10-10-----12-12-12-12-12-12----|
D---------------------------------------------------|
A---8--8--8--8--8--8--8--8-----10-10-10-10-10-10----|
D---------------------------------------------------|

Chorus:     1:48-2:00
E---------------------------------|-----------------|
B---------------------------------|-----------------|
G---------------------------------|-----------------|
D----0------5------8--------5-----|--0~~------------|
A----0------5------8--------5-----|--0~~------------|
D----0------5------8--------5-----|--0~~------------|

Octave Part:  2:01 -2:14
E|-----------------------------------------------|
B|-----------------------------------------------|
G|----7---12--10--9/10--7--9-10-7--6-------------|
D|-----------------------------------------------|
A|----5---10--8---7/8---5--7-8--5-4--------------|
D|-----------------------------------------------|

E-----------------------------------------------|
B-----------------------------------------------|
G----7---12--10--9/10--7--9-10-7/6/7------------|
D-----------------------------------------------| REPEAT ONCE
A----5---10--8---7/8---5--7-8--5/4/5------------|
D-----------------------------------------------|
     2:15
E------------------------------------------------|
B------------------------------------------------|
G------------------------------------------------|
D--0-~~------------------------------------------|
A--0-~~------------------------------------------|
D--0-~~------------------------------------------|

KEY BOARD SOLO "ALL MISTAKES CAN BE MARKED...." 2:20- 2:59

VERSE:  3:00 - 3:10
          OPEN D WITH RHYTHM
E----------------------------------------------|
B----------------------------------------------|
G----------------------------------------------|
D--0-------------------------------------------|
A--0-------------------------------------------|
D--0-------------------------------------------|

   Little bridge thing to a cool riff: 3:11- 3:39

E---------------------------------------------|
B---------------------------------------------|
G---------------------------------------------|
D---------------------------------------------|
A----15-15-15-15-17-17-17-17-17---------------|
D---------------------------------------------|

    ^^^^^^^^^^^^^^^^^^^^^^^^
E--|------------------------------------------|
B--|------------------------------------------|
G--|------------------------------------------|
D--|------------------------------------------|Repeat Once
A--|-12--11--15-14--17--19--------------------|
D--|------------------------------------------|

Octave Part with keys : 3: 40- 4:04
E|-------------------------------------------------|
B|-------------------------------------------------|
G|----7---12--10--9/10--7--9-10-7--6---------------|
D|-------------------------------------------------|
A|----5---10--8---7/8---5--7-8--5--4---------------|
D|-------------------------------------------------|

E-----------------------------------------------|
B-----------------------------------------------|
G----7---12--10--9/10--7--9-10-7/6/7------------|
D-----------------------------------------------| REPEAT ONCE
A----5---10--8---7/8---5--7-8--5/4/5------------|
D-----------------------------------------------|

E------------------------------------------------|
B------------------------------------------------|
G------------------------------------------------|
D-----0~~~~~~~~~~~-------------------------------|
A-----0~~~~~~~~~~~-------------------------------|
D-----0~~~~~~~~~~~-------------------------------|


- Got any questions e-mail me Jeff_ohh@yahoo.com

----Jeff Peterson
Related for Danger Wildman tab