Song name
# A B C D E F G H I J K L M N O P Q R S T U V W X Y Z

The Devil Wears Prada - Ben Has A Kid tab

-------------------------------------------------------------------------------
			     BEN HAS A KID - The Devil Wears Prada
-------------------------------------------------------------------------------
Tabbed by:Scotty
Email:scott.hull@live.longwood.edu

this is my first tab. I went on here cause I wanted to play this song, there was no tab 
I was like bump it ill do it my self

Tuning: Drop D son, or C if you want it super deep

e|---------------------------------------------------------------------------|
B|--6-6-6-6----6-6-6-6---6-6-6-6----6-6-6-6---6~-----------------------------|
G|--7-7-7-7----7-7-7-7---7-7-7-7----7-7-7-7---7~-----------------------------|
D|--0-0-0-0-00-0-0-0-0-0-0-0-0-0-00-0-0-0-0-0--------------------------------|
A|----------00---------0---------00---------0--------------------------------|
D|----------00---------0---------00---------0--------------------------------|
            **         *         **         *

e|---------------------------------------------------------------------------|
B|---------------------------------------------------------------------------|
G|------------10-10---9------------------------------------------------------|
D|--8-7-5-7----------------------------8-7\--00000--00000--------------------|
A|--8-7-5-5-00-8--8-0-7-0-5h7h8--10p8--8-7\--00000--00000--------------------|
D|--8-7-5---00------0---0--------------8-7\--00000--00000----(X2)------------|
            **      *   *                    *****  *****

e|---------------------------------------------------------------------------|
B|---------------------------------------------------------------------------|
G|---------------------------------------------------------------------------|
D|-------5-8-7-5-3-2---------------------------------------------------------|
A|-------5-8-7-5-3-2---------------------------------------------------------|
E|-00000-5-8-7-5-3-2---------------------------------------------------------|
   *****

e|---------------------------------------------------------------------------|
B|---------------------------------------------------------------------------|
G|---------------------------------------------------------------------------|
D|---------------------------------------------------------------------------|
A|--------88887777-------88887777---77778888101010888777555-4h5--------------|
E|-0000000--------5555555--------888-----------------------------------------|


e|---------------------------------------------------------------------------|
B|---------------------------------------------------------------------------|
G|--------------------------------------------------------6~-----------------|
D|-000-0-000-0---000-0-000-0-1---000-0-000----000-0-000-0-7~-----------------|
A|-000-0-000-0---000-0-000-0-1---000-0-000----000-0-000-0-0~-----------------|
E|-000-0-000-0---000-0-000-0-0---000-0-000-7*-000-0-000-0--------------------|
   *** * *** *   *** * *** *     *** * ***    *** * *** *

This is all I have because there was too much distortion in the chorus for me to tell 
the power chords.  The tremelo part was also hard to pick up cause of that dumb 
if you have another way to play this part let a brother know yo.


| /  slide up
| \  slide down
| h  hammer-on
| p  pull-off
| ~  Let It Ring
| *  Artificial Harmonic
===============================================================================
Tap to rate this tab
 
# A B C D E F G H I J K L M N O P Q R S T U V W X Y Z