Song name
# A B C D E F G H I J K L M N O P Q R S T U V W X Y Z

The Devil Wears Prada - Gaunlet Of Solitude tab

Help us improve GuitareTab! Take a short survey!
Im sorry i could only tab the intro for now.I should have the whole tab up soon.It is 
in Drop D.

e-------------------------------------------------------------------|
B-------------------------------------------------------------------|
G-------------------------------------------------------------------|
D-0~~~--------------------------------------------------------------|
A-0~~~--------------------------------------------------------------|
D-0~~~--------------------------------------------------------------|


e-------------------------------------------------------------------|
B-----------------9-9h10------------------9/(15)--------------------|
G---------9-11-12-----------------9-11-12---------------------------|
D----9-11--------------------9-11-----------------------------------|
A-00----------------------00----------------------------------------|
D-00----------------------00----------------------------------------|
pm..                      ..

e-------------------------------------------------------------------|
B-----------------9-9h10------------------15b-----------------------|
G---------9-11-12-----------------9-11-12---------------------------|
D----9-11--------------------9-11-----------------------------------|
A-00----------------------00----------------------------------------|
D-00----------------------00----------------------------------------|
pm..                      ..

x4
e------------------------------|
B-------------------12-12h13---|
G----------12-14-15------------|
D----12-14---------------------|
A-00---------------------------|
D-00---------------------------|
pm..

Key
~=let not ring
h=hammeron
/=slide
()=squeel
.=palm mute
b=bend

yeah so that is the best i could get for it.if you have any questions then either 
or email me at intheireyes777@hotmail.com.
Related for Gaunlet Of Solitude tab