Song name
# A B C D E F G H I J K L M N O P Q R S T U V W X Y Z

The Devil Wears Prada - Louder Than Thunder chords

Highlighted       Show chord diagrams
                  Louder Than Thunder- The Devil Wears Prada

Tuning: standard

intro:
     e---10-9-7--------------------------------------------|
     b----------7----7-10-12----12-14-15-14----7-5-7-------|
     g-----------------------------------------------------|
     d-----------------------------------------------------|
     a-----------------------------------------------------|
     E-----------------------------------------------------|

verse:

Bm                                     G
   What would it take for things to be quiet
                     Bm
quiet like the snow. and i know this isn't much
    G
but i know i could, i could be better.

Chorus:

                   G         Em
i don't think i deserve it. selflessness.
 Bm              A
find your way into my heart.
G                   Em
all stars could be brighter.
Bm                  A
all hearts could be warmer.

verse 2:

Bm                                     G
   what would it take for things to be quiet
                     Bm
quiet like the snow. are we meant to be empty handed.
 G
i know i could, i could be better.

Then the chorus again

outro:

e--14-12-------14/15-14-12~------------|
b-------12~---------------12~---10-12~-|(2x)
g--------------------------------------|
d--------------------------------------|
a--------------------------------------|
E--------------------------------------|
Tap to rate this tab
# A B C D E F G H I J K L M N O P Q R S T U V W X Y Z