Song name
# A B C D E F G H I J K L M N O P Q R S T U V W X Y Z

The Devil Wears Prada - Hey John Whats Your Name Again tab

#----------------------------------PLEASE NOTE---------------------------------#
#This file is the author's own work and represents their interpretation of the #
#song. You may only use this file for private study, scholarship, or research. #
#------------------------------------------------------------------------------##

                        HEY JOHN, WHAT'S YOUR NAME AGAIN?
                      As recorded by The Devil Wears Prada
                          (From the 2007 Album PLAGUES)

Words by TDWP (Mike Hranica?)

Music by TDWP
Arranged by TDWP
Transcribed by Sean G

Gtr I (D A D G B E) - 'Untitled'
Gtr II (D A D G B E) - 'Untitled'

   The concept of fashion...
    Q=180
   4/4
    Gtrs I, II
    W          +W           W          W
||-----------|------------|----------|-------||
||o----------|------------|----------|------o||
||-----------|------------|----------|-------||
||--0--------|-(0)--------|-8--------|-5-----||
||o-0--------|-(0)--------|-8--------|-5----o||
||--0--------|-(0)--------|-8--------|-5-----||


   Painting the portrait...
      PM|   PM|         PM|   PM|          PM|   PM|
    E E E E E E E E   E E E E E E E E    E E E E E E E E   E E  Q E E  Q
||------------------|-----------------|------------------|-------------------||
||o-----------------|-----------------|------------------|------------------o||
||------------------|-----------------|------------------|-------------------||
||------------------|-----------------|------------------|-----10------------||
||o-8-----7-----7-8-|-8-----7-----7-8-|-10-----7-----7-8-|-8-7----8-7-10----o||
||----0-0---0-0-----|---0-0---0-0-----|----0-0---0-0-----|-------------------||


 Well it must be difficult...
   E  E  E  E  E  E  E  E    E  E  E  E  E  E  E  E    E  E  E  E  E  E  E  E
|-------------------------|-------------------------|-------------------------|
|-11-11-11-11-11-11-11-11-|-11-11-11-11-11-11-11-11-|-13-13-13-13-13-13-13-13-|
|--x--x--x--x--x--x--x--x-|--x--x--x--x--x--x--x--x-|--x--x--x--x--x--x--x--x-|
|--8--8--8--8--8--8--8--8-|--8--8--8--8--8--8--8--8-|-10-10-10-10-10-10-10-10-|
|-------------------------|-------------------------|-------------------------|
|-------------------------|-------------------------|-------------------------|


   E  E  E  E  E  E  E  E    E  E  E  E  E  E  E  E    E  E  E  E  E  E  E  E
|-------------------------|-------------------------|-------------------------|
|-13-13-13-13-13-13-13-13-|-10-10-10-10-10-10-10-10-|-10-10-10-10-10-10-10-10-|
|--x--x--x--x--x--x--x--x-|--x--x--x--x--x--x--x--x-|--x--x--x--x--x--x--x--x-|
|-10-10-10-10-10-10-10-10-|--7--7--7--7--7--7--7--7-|--7--7--7--7--7--7--7--7-|
|-------------------------|-------------------------|-------------------------|
|-------------------------|-------------------------|-------------------------|


 Being so gorgeous.
  PM---------|
  Q.   Q   E Q   W
|--------------|------||
|--------------|------||
|--------------|------||
|--------------|-0----||
|-0----0---0-0-|-0----||
|-0----0---0-0-|-0----||


   Chorus-ish
    E E E E E E E E   E E E E E E E E
||------------------|-----------------|
||o-----------------|-----------------|
||------------------|-----------------|
||--8-8-8-8-8-8-8-8-|-8-8-8-8-8-8-8-8-|
||o-8-8-8-8-8-8-8-8-|-8-8-8-8-8-8-8-8-|
||--8-8-8-8-8-8-8-8-|-8-8-8-8-8-8-8-8-|


   E  E  E  E  E  E  E  E    E  E  E  E  E  E  E  E
|-------------------------|--------------------------|
|-------------------------|--------------------------|
|-------------------------|--------------------------|
|-10-10-10-10-10-10-10-10-|-10-10-10-10-10-10-10-10--|
|-10-10-10-10-10-10-10-10-|-10-10-10-10-10-10-10-10--|
|-10-10-10-10-10-10-10-10-|-10-10-10-10-10-10-10-10--|


                                     1.
  E E E E E E E E   E E E E E E E E   E E E E E E E E   E E E E E E E E
|-----------------|-----------------|-----------------|------------------||
|-----------------|-----------------|-----------------|-----------------o||
|-----------------|-----------------|-----------------|------------------||
|-5-5-5-5-5-5-5-5-|-5-5-5-5-5-5-5-5-|-5-5-5-5-5-5-5-5-|-5-5-5-5-5-5-5-5--||
|-5-5-5-5-5-5-5-5-|-5-5-5-5-5-5-5-5-|-5-5-5-5-5-5-5-5-|-5-5-5-5-5-5-5-5-o||
|-5-5-5-5-5-5-5-5-|-5-5-5-5-5-5-5-5-|-5-5-5-5-5-5-5-5-|-5-5-5-5-5-5-5-5--||


  2.
  PM---------|
  Q.   Q   E Q   W
|--------------|------||
|--------------|------||
|--------------|------||
|--------------|-0----||
|-0----0---0-0-|-0----||
|-0----0---0-0-|-0----||


   This shall pass...
    Gtr I
    PM             PM               PM
    Q  E Q.   Q    Q  E Q.    Q     Q  E Q.   Q     E  E  E  E  E  E  E  E   4x
||---------------|----------------|--------------|---------------------------||
||o--------------|----------------|--------------|--------------------------o||
||---------------|----------------|--------------|--8--8--8-----7--7--7--7---||
||--0----8-------|------7-----0---|------8-------|--x--x--x-----x--x--x--x---||
||o-0---------0--|-0----------0---|-0---------0--|--6--6--6-----5--5--5--5--o||
||--0---------0--|-0----------0---|-0---------0--|-----------0---------------||
|
|   Gtr II
|   PM             PM               PM
|   Q  E Q.   Q    Q  E Q.    Q     Q  E Q.   Q     E  E  E  E  E  E  E  E   4x
||---------------|----------------|--------------|---------------------------||
||o--------------|----------------|--------------|--------------------------o||
||---------------|----------------|--------------|-12-12-12-12-11-11-11-11---||
||-------8-------|----------------|------8-------|--x--x--x--x--x--x--x--x---||
||o-0---------0--|-0---------12\--|-0---------0--|-10-10-10-10--9--9--9--9--o||
||--0---------0--|-0----7----12\--|-0---------0--|---------------------------||


 Weird effecty thing
  Q=90
  Gtrs I, II
  W          W          W          Q  H.
|----------|----------|----------|----------||
|----------|----------|----------|----------||
|----------|----------|----------|----------||
|----------|-0--------|-0--------|-0--------||
|----------|-0--------|-0--------|-0--------||
|----------|-0--------|-0--------|-0--------||


   Congratulations
    Q=180
    PM---------------------------------------------------------------|
                                         |-3--|  |-3--|  |-3--|  |-3--|
    H.      Q    W          H.      Q    E E +E  E E +E  E E +E  E E +E
||-------------|----------|------------|-----------------------------------||
||o------------|----------|------------|----------------------------------o||
||-------------|----------|------------|-----------------------------------||
||-------------|----------|------------|-----------------------------------||
||o-0-------0--|-0--------|-0-------0--|-0-0-(0)-0-0-(0)-0-0-(0)-0-0-(0)--o||
||--0-------0--|-0--------|-0-------0--|-0-0-(0)-0-0-(0)-0-0-(0)-0-0-(0)---||


   For a life.
    PM-------------------------------------------------------|
             |-3-|                          |-3-|
    Q  Q  Q  E E E   Q  Q  Q  Q    Q  Q  Q  E E E   Q  Q  Q  Q
||-----------------|-------------|----------------|---------------||
||o----------------|-------------|----------------|--------------o||
||-----------------|-------------|----------------|---------------||
||-----------------|-------------|----------------|---------------||
||o-0--0-----0-0-0-|-0--0--0--0--|-0--0-----0-0-0-|-0--0--0--0---o||
||--0--0-----0-0-0-|-0--0--0--0--|-0--0-----0-0-0-|-0--0--0--0----||


 Life! Life!
  Gtr I
  E E E E E E E   E     E E E E E E E E
|---------------------|-----------------|
|---------------------|-----------------|
|-7-7-7-7-7-7-7---7---|-7-7-7-7-7-7-7-7-|
|-x-x-x-x-x-x-x---x---|-x-x-x-x-x-x-x-x-|
|-5-5-5-5-5-5-5---5---|-5-5-5-5-5-5-5-5-|
|---------------------|-----------------|
|
| Gtr II
| PM-------------------------------------
|             |--3--|
| Q   Q   Q   E E   E   Q   Q   Q   Q
|---------------------|-----------------|
|---------------------|-----------------|
|---------------------|-----------------|
|---------------------|-----------------|
|-0---0-------0-0---0-|-0---0---0---0---|
|-0---0-------0-0---0-|-0---0---0---0---|


  E E E E E E E   E     E E E E E E E E
|---------------------|-----------------|
|---------------------|-----------------|
|-9-9-9-9-9-9-9---9---|-9-9-9-9-9-9-9-9-|
|-x-x-x-x-x-x-x---x---|-x-x-x-x-x-x-x-x-|
|-7-7-7-7-7-7-7---7---|-7-7-7-7-7-7-7-7-|
|---------------------|-----------------|
|
|-----------------------------------|
|             |--3--|
| Q   Q   Q   E E   E   Q   Q   Q   Q
|---------------------|-----------------|
|---------------------|-----------------|
|---------------------|-----------------|
|---------------------|-----------------|
|-0---0-------0-0---0-|-0---0---0---0---|
|-0---0-------0-0---0-|-0---0---0---0---|


   E  E  E  E  E  E  E    E      E  E  E  E  E  E  E  E
|-----------------------------|-------------------------|
|-----------------------------|-------------------------|
|-12-12-12-12-12-12-12---12---|-12-12-12-12-12-12-12-12-|
|--x--x--x--x--x--x--x----x---|--x--x--x--x--x--x--x--x-|
|-10-10-10-10-10-10-10---10---|-10-10-10-10-10-10-10-10-|
|-----------------------------|-------------------------|
|
|  PM----------------------------------------------------
|                    |--3---|
|  Q     Q     Q     E E    E    Q     Q     Q     Q
|-----------------------------|-------------------------|
|-----------------------------|-------------------------|
|-----------------------------|-------------------------|
|-----------------------------|-------------------------|
|--0-----0-----------0-0----0-|--0-----0-----0-----0----|
|--0-----0-----------0-0----0-|--0-----0-----0-----0----|


   E  E  E  E  E  E  E    E      E  E  E  E  E  E  E  E
|-----------------------------|-------------------------||
|-----------------------------|-------------------------||
|-15-15-15-15-15-15-15---15---|-15-15-15-15-15-15-15-15-||
|--x--x--x--x--x--x--x----x---|--x--x--x--x--x--x--x--x-||
|-13-13-13-13-13-13-13---13---|-13-13-13-13-13-13-13-13-||
|-----------------------------|-------------------------||
|
|-------------------------------------------------|
|                    |--3---|
|  Q     Q     Q     E E    E    Q     Q     Q     Q
|-----------------------------|-------------------------||
|-----------------------------|-------------------------||
|-----------------------------|-------------------------||
|-----------------------------|-------------------------||
|--0-----0-----------0-0----0-|--0-----0-----0-----0----||
|--0-----0-----------0-0----0-|--0-----0-----0-----0----||


   Chorus-ish
    Gtr I
     E  E  E  E  E  E  E  E    E  E  E  E  E  E  E  E
||--------------------------|-------------------------|
||o-------------------------|-------------------------|
||--------------------------|-------------------------|
||---8--8--8--8--8--8--8--8-|--8--8--8--8--8--8--8--8-|
||o--8--8--8--8--8--8--8--8-|--8--8--8--8--8--8--8--8-|
||---8--8--8--8--8--8--8--8-|--8--8--8--8--8--8--8--8-|
|
|   Gtr II
|    E  E  E  E  E  E  E  E    E  E  E  E  E  E  E  E
||--------------------------|-------------------------|
||o-------------------------|-------------------------|
||--10-10-10-10-10-10-10-10-|-12-12-12-12-14-14-14-14-|
||---x--x--x--x--x--x--x--x-|--x--x--x--x--x--x--x--x-|
||o--8--8--8--8--8--8--8--8-|-10-10-10-10-12-12-12-12-|
||--------------------------|-------------------------|


   E  E  E  E  E  E  E  E    E  E  E  E  E  E  E  E
|-------------------------|--------------------------|
|-------------------------|--------------------------|
|-------------------------|--------------------------|
|-10-10-10-10-10-10-10-10-|-10-10-10-10-10-10-10-10--|
|-10-10-10-10-10-10-10-10-|-10-10-10-10-10-10-10-10--|
|-10-10-10-10-10-10-10-10-|-10-10-10-10-10-10-10-10--|
|
|  E  E  E  E  E  E  E  E    E  E  E  E  E  E  E  E
|-------------------------|--------------------------|
|-------------------------|--------------------------|
|--9--9--9--9--9--9--9--9-|-10-10-10-10-12-12-12-12--|
|--x--x--x--x--x--x--x--x-|--x--x--x--x--x--x--x--x--|
|--7--7--7--7--7--7--7--7-|--8--8--8--8-10-10-10-10--|
|-------------------------|--------------------------|


  E E E E E E E E   E E E E  E  E  E  E
|-----------------|---------------------|
|-----------------|---------------------|
|-----------------|---------------------|
|-5-5-5-5-5-5-5-5-|-5-5-5-5--5--5--5--5-|
|-5-5-5-5-5-5-5-5-|-5-5-5-5--5--5--5--5-|
|-5-5-5-5-5-5-5-5-|-5-5-5-5--5--5--5--5-|
|
| E E E E E E E E   E E E E  E  E  E  E
|-----------------|---------------------|
|-----------------|---------------------|
|-7-7-7-7-7-7-7-7-|-9-9-9-9-12-12-12-12-|
|-x-x-x-x-x-x-x-x-|-x-x-x-x--x--x--x--x-|
|-5-5-5-5-5-5-5-5-|-7-7-7-7-10-10-10-10-|
|-----------------|---------------------|


   E  E  E  E  E  E  E  E    E  E  E  E  E  E  E  E
|-------------------------|--------------------------||
|-------------------------|-------------------------o||
|-------------------------|--------------------------||
|--5--5--5--5--5--5--5--5-|--5--5--5--5--5--5--5--5--||
|--5--5--5--5--5--5--5--5-|--5--5--5--5--5--5--5--5-o||
|--5--5--5--5--5--5--5--5-|--5--5--5--5--5--5--5--5--||
|
|  E  E  E  E  E  E  E  E    E  E  E  E  E  E  E  E
|-------------------------|--------------------------||
|-------------------------|-------------------------o||
|-17-17-17-17-17-17-17-17-|-17-17-17-17-17-17-17-17--||
|--x--x--x--x--x--x--x--x-|--x--x--x--x--x--x--x--x--||
|-15-15-15-15-15-15-15-15-|-15-15-15-15-15-15-15-15-o||
|-------------------------|--------------------------||


     E  E  E  E  E  E  E  E    E  E  E  E  E  E  E  E
||--------------------------|-------------------------|
||o-------------------------|-------------------------|
||--------------------------|-------------------------|
||---8--8--8--8--8--8--8--8-|--8--8--8--8--8--8--8--8-|
||o--8--8--8--8--8--8--8--8-|--8--8--8--8--8--8--8--8-|
||---8--8--8--8--8--8--8--8-|--8--8--8--8--8--8--8--8-|
|
|    E  E  E  E  E  E  E  E    E  E  E  E  E  E  E  E
||--------------------------|-------------------------|
||o-------------------------|-------------------------|
||--10-10-10-10-10-10-10-10-|-12-12-12-12-14-14-14-14-|
||---x--x--x--x--x--x--x--x-|--x--x--x--x--x--x--x--x-|
||o--8--8--8--8--8--8--8--8-|-10-10-10-10-12-12-12-12-|
||--------------------------|-------------------------|


   E  E  E  E  E  E  E  E    E  E  E  E  E  E  E  E
|-------------------------|--------------------------|
|-------------------------|--------------------------|
|-------------------------|--------------------------|
|-10-10-10-10-10-10-10-10-|-10-10-10-10-10-10-10-10--|
|-10-10-10-10-10-10-10-10-|-10-10-10-10-10-10-10-10--|
|-10-10-10-10-10-10-10-10-|-10-10-10-10-10-10-10-10--|
|
|  E  E  E  E  E  E  E  E    E  E  E  E  E  E  E  E
|-------------------------|--------------------------|
|-------------------------|--------------------------|
|--9--9--9--9--9--9--9--9-|-10-10-10-10-12-12-12-12--|
|--x--x--x--x--x--x--x--x-|--x--x--x--x--x--x--x--x--|
|--7--7--7--7--7--7--7--7-|--8--8--8--8-10-10-10-10--|
|-------------------------|--------------------------|


  E E E E E E E E   E E E E  E  E  E  E
|-----------------|---------------------|
|-----------------|---------------------|
|-----------------|---------------------|
|-0-0-0-0-0-0-0-0-|-0-0-0-0--0--0--0--0-|
|-0-0-0-0-0-0-0-0-|-0-0-0-0--0--0--0--0-|
|-0-0-0-0-0-0-0-0-|-0-0-0-0--0--0--0--0-|
|
| E E E E E E E E   E E E E  E  E  E  E
|-----------------|---------------------|
|-----------------|---------------------|
|-7-7-7-7-7-7-7-7-|-9-9-9-9-12-12-12-12-|
|-x-x-x-x-x-x-x-x-|-x-x-x-x--x--x--x--x-|
|-5-5-5-5-5-5-5-5-|-7-7-7-7-10-10-10-10-|
|-----------------|---------------------|


   E  E  E  E  E  E  E  E    E  E  E  E  E  E  E  E
|-------------------------|--------------------------||
|-------------------------|-------------------------o||
|-------------------------|--------------------------||
|--3--3--3--3--3--3--3--3-|--3--3--3--3--3--3--3--3--||
|--3--3--3--3--3--3--3--3-|--3--3--3--3--3--3--3--3-o||
|--3--3--3--3--3--3--3--3-|--3--3--3--3--3--3--3--3--||
|
|  E  E  E  E  E  E  E  E    E  E  E  E  E  E  E  E
|-------------------------|--------------------------||
|-------------------------|-------------------------o||
|-17-17-17-17-17-17-17-17-|-17-17-17-17-17-17-17-17--||
|--x--x--x--x--x--x--x--x-|--x--x--x--x--x--x--x--x--||
|-15-15-15-15-15-15-15-15-|-15-15-15-15-15-15-15-15-o||
|-------------------------|--------------------------||


   We all find ourselves...
    Gtrs I, II
    |--3--|                              |--3--|
    H  H  H     E  E  E  E  E  E  E  E   H  H  H
||-----------|-------------------------|----------|
||o----------|-------------------------|----------|
||-----------|-14-14-14-14-14-14-14-14-|----------|
||--0--0--0--|--x--x--x--x--x--x--x--x-|-0--0--0--|
||o-0--0--0--|-12-12-12-12-12-12-12-12-|-0--0--0--|
||--0--0--0--|-------------------------|-0--0--0--|


 1.                           2.
   E  E  E  E  E  E  E  E      E  E  E  E  E  E  E  E
|--------------------------||-------------------------||
|-------------------------o||-------------------------||
|-15-15-15-15-15-15-15-15--||-15p14-------------------||
|--x--x--x--x--x--x--x--x--||-------15p14-------------||
|-13-13-13-13-13-13-13-13-o||-------------15p14-------||
|--------------------------||-------------------15p14-||


   (Oh God) Heres an offering
    Q=90
            PM--------------|                PM--------------|
    |-3-|   |----6----| |-3-|        |-3-|   |----6----| |-3-| |-3--| |-3-|
    S S S E S S S S S S E E E Q   4x S S S E S S S S S S E E E S  S S S S S
||--------------------------------||-----------------------------------------|
||o------------------------------o||-----------------------------------------|
||--------------------------------||-----------------------------------------|
||--------------------------------||---------------------------7h10p7-6h9p6--|
||o-0-0-0---0-0-0-0-0-0-0-0-0----o||-0-0-0---0-0-0-0-0-0-0-0-0---------------|
||--0-0-0---0-0-0-0-0-0-0-0-0-----||-0-0-0---0-0-0-0-0-0-0-0-0---------------|


  PM----|     PM------------------------------|     PM--------------|  ~~~
  |-3-|       |----6----| |-3-| |-3-|   |-3-|       |----6----| |-3-|
  S S S +S  S S S S S S S E E E E E E   S S S +S  S S S S S S S E E E  Q
|-------------------------------------|-------------------------------------|
|-------------------------------------|-------------------------------------|
|-------------------------------------|-------------------------------------|
|-------------------------------------|-------------------------------------|
|-0-0-0-(0)---0-0-0-0-0-0-0-0-0-3-2-1-|-0-0-0-(0)---0-0-0-0-0-0-0-0-0-------|
|-0-0-0-(0)---0-0-0-0-0-0-0-0-0-3-2-1-|-0-0-0-(0)---0-0-0-0-0-0-0-0-0-[7]---|


  PM----|     PM--------------------|               PM--------------|  ~~~
  |-3-|       |----6----| |-3-| |-3-|   |-3-|       |----6----| |-3-|
  S S S +S  S S S S S S S E E E E E E   S S S +S  S S S S S S S E E E  Q
|-------------------------------------|-------------------------------------|
|-------------------------------------|-------------------------------------|
|-------------------------------------|-------------------------------------|
|-------------------------------------|-------------------------------------|
|-0-0-0-(0)---0-0-0-0-0-0-0-0-0-5-3-2-|-0-0-0-(0)---0-0-0-0-0-0-0-0-0-[7]---|
|-0-0-0-(0)---0-0-0-0-0-0-0-0-0-5-3-2-|-0-0-0-(0)---0-0-0-0-0-0-0-0-0-------|


  W          +W           +W           +W
|----------|------------|------------|--------*|
|----------|------------|------------|--------*|
|----------|------------|------------|--------*|
|-0--------|-(0)--------|-(0)--------|-(0)----*|
|-0--------|-(0)--------|-(0)--------|-(0)----*|
|-0--------|-(0)--------|-(0)--------|-(0)----*|


Duration Legend
---------------
W - whole; H - half; Q - quarter; E - 8th; S - 16th; T - 32nd; X - 64th; a - acciaccatura
+ - note tied to previous; . - note dotted; .. - note double dotted
Uncapitalized letters represent notes that are staccato (1/2 duration)
Irregular groupings are notated above the duration line
Duration letters will always appear directly above the note/fret number it represents the
duration for.  Duration letters with no fret number below them represent rests.  Multi-
bar rests are notated in the form Wxn, where n is the number of bars to rest for.  Low
melody durations appear below the staff

Tablature Legend
----------------
 h   - hammer-on
 p   - pull-off
 b   - bend
 pb  - pre-bend
 r   - bend release (if no number after the r, then release immediately)
 /\  - slide into or out of (from/to "nowhere")
 s   - legato slide
 S   - shift slide
  - natural harmonic
[n]  - artificial harmonic
n(n) - tapped harmonic
 ~   - vibrato
 tr  - trill
 T   - tap
 TP  - trem. picking
 PM  - palm muting
\n/  - tremolo bar dip; n = amount to dip
 \n  - tremolo bar down
 n/  - tremolo bar up
/n\  - tremolo bar inverted dip
 =   - hold bend; also acts as connecting device for hammers/pulls
 <>  - volume swell (louder/softer)
 x   - on rhythm slash represents muted slash
 o   - on rhythm slash represents single note slash

Misc Legend
-----------
 |  - bar
||  - double bar
||o - repeat start
o|| - repeat end
*|  - double bar (ending)
 :  - bar (freetime)
 $  - Segno
 &  - Coda
Tempo markers -  = BPM(8/16=s8/s16), where s8 = swing 8ths, s16 = swing 16ths


***************************************************************************************
* Generated using Power Tab Editor by Brad Larsen - http://powertab.guitarnetwork.org *
***************************************************************************************
Tap to rate this tab
# A B C D E F G H I J K L M N O P Q R S T U V W X Y Z