Song name
# A B C D E F G H I J K L M N O P Q R S T U V W X Y Z

The Devil Wears Prada - Html Rulez D00d tab

-------------------------------------------------------------------------------
			     HTML Rulez D00d - The Devil Wears Prada
-------------------------------------------------------------------------------
Tabbed by: jaysk8s
Email: punk_9_1@yahoo.com

Tuning: Dropped D

~-let ring
/-slide up
\-slide down
.-palm mute
h-hammer on
p-pull off
*-pinch harmonic
=-pick slide
<>-natural harmonic

Lead Guitar-[Chris Rubey]-left speaker

Intro                            x3
e||---------------------------------|----------|
B||101010--1010101010--101010101010-|----------|
G|| 9 9 9-- 9 9 9 9 9-- 9 9 9 9 9 9-|-7~~~~~---|
D|| x x x-- x x x x x-- x x x x x x-|-x--------|
A|| 7 7 7-- 7 7 7 7 7-- 7 7 7 7 7 7-|-5~~~~~---|
D||---------------------------------|----------|

                        
e|--------------------------------------------------|
B|--------------------------------------------------|
G|---------------10101010/-------------121212121212-|
D|8-88888888888-- x x x x --888888888-- x x x x x x-|
A|8-88888888888-- 8 8 8 8/--888888888--101010101010-|
D|8-88888888888-------------888888888---------------|


e|--------------------------------------------------|
B|--------------------------------------------------|
G|--101010/----101010/----101010/----12121212121212-|
D|0- x x x--00- x x x--00- x x x--00- x x x x x x x-|
A|0- 9 9 9/-00- 9 9 9/-00- 9 9 9/-00- 9 9 9 9 9 9 9-|
D|0---------00---------00---------00----------------|


e|---------------------------------|
B|---------------------------------|
G|---------------------------------|
D|33333333333333335555555555555555-|
A|33333333333333335555555555555555-|
D|33333333333333335555555555555555-|


e|--------------------------------------------------|
B|--------------------------------------------------|
G|--101010/----101010/----101010/----12121212121212-|
D|0- x x x--00- x x x--00- x x x--00- x x x x x x x-|
A|0- 9 9 9/-00- 9 9 9/-00- 9 9 9/-00- 9 9 9 9 9 9 9-|
D|0---------00---------00---------00----------------|


e|--------------------------------|----------------------|
B|--------------------------------|----------------------|
G|--------------------------------|----------------------|
D|-12121212-12-12-12-12-12121212--|-0000-0-0-0000--------|
A|-12121212-12-12-12-12-12121212--|-0000-0-0-0000-00000--|
D|-12121212-12-12-12-12-12121212--|-0000-0-0-0000-00000--|
                                                  .....

e|---------------------------------------------------|------------------|
B|---------------------------------------------------|------------------|
G|-7777-7-99-1010-99-77-55-33333333\1010101010101010-|-10101010-10-1212-|
D|-xxxx-x-xx- x x-xx-xx-xx-xxxxxxxx- x x x x x x x x-|- x x x x- x- x x-|
A|-5555-5-77- 8 8-77-55-33-11111111\ 8 8 8 8 8 8 8 8-|- 8 8 8 8- 8-1010-|
D|---------------------------------------------------|------------------|
cont.
e|------------------------------------------------------------|
B|------------------------------------------------------------|
G|1414-1313-1212-1111-1010101010101010\1414141414141414-------|
D| x x- x x- x x- x x- x x x x x x x x- x x x x x x x x-0~~~~~|
A|1212-1111-1010- 9 9- 8 8 8 8 8 8 8 8\1212121212121212-0~~~~~|
D|------------------------------------------------------0~~~~~|

Chorus x2                                          
e|------------------------------------------------|
B|------------------------------------------------|
G|-7777777777777777-5555555555555555-333333333333-|
D|-xxxxxxxxxxxxxxxx-xxxxxxxxxxxxxxxx-xxxxxxxxxxxx-|
A|-5555555555555555-3333333333333333-111111111111-|
D|------------------------------------------------|           
cont.                                                   
e|-----------------------------------------|
B|-----------------------------------------|
G|-----------------13h15p13----------------|
D|-1515151515151515--------15p13-13h15-13\-|
A|-----------------------------------------|
D|-----------------------------------------|

Breakdown              x4        x4                           x4
e|-----------------------|---------|--------------------|-------|
B|-----------------------|---------|--------------------|-------|
G|-----------------------|---------|--------------------|-------|
D|-----------------------|---------|--------------------|-------|
A|-00000-0-0-00000-00000-|-00000-0-|-0-5-3-0-3-0-3-0-3*-|-0~0~~-|
D|-00000-0-0-00000-00000-|-00000-0-|-0-5-3-0-2-0-3-0----|-0~0~~-|
   ..... . . ..... .....   ..... .   . . . . . . . .      . .
cont.
e|------------------|
B|------------------|
G|------------------|
D|---0000000000-----|
A|-0-0000000000-0~~-|
D|-0-0000000000-0~~-|
                .

Chorus 2 x2
e|-------------------------------------------------------------------|
B|-------------------------------------------------------------------|
G|-14141414141414141414141414141414-12121212121212121212121212121212-|
D|- x x x x x x x x x x x x x x x x- x x x x x x x x x x x x x x x x-|
A|-12121212121212121212121212121212-10101010101010101010101010101010-|
D|-------------------------------------------------------------------|
cont.
e|-------------------------------------------------------------------|
B|-------------------------------------------------------------------|
G|-15151515151515151515151515151515-10101010101010101010101010101010-|
D|- x x x x x x x x x x x x x x x x- x x x x x x x x x x x x x x x x-|
A|-13131313131313131313131313131313- 8 8 8 8 8 8 8 8 8 8 8 8 8 8 8 8-|
D|-------------------------------------------------------------------|
cont.
e|-------------------------------------------------------------------|
B|-------------------------------------------------------------------|
G|-14141414141414141414141414141414-12121212121212121212121212121212-|
D|- x x x x x x x x x x x x x x x x- x x x x x x x x x x x x x x x x-|
A|-12121212121212121212121212121212-10101010101010101010101010101010-|
D|-------------------------------------------------------------------|
cont.
e|-----------------------------------------------------------------------|
B|-----------------------------------------------------------------------|
G|-15151515151515151515151515151515-1010101010101010-99999999------------|
D|- x x x x x x x x x x x x x x x x- x x x x x x x x-xxxxxxxx-0~~~~~~~~--|
A|-13131313131313131313131313131313- 8 8 8 8 8 8 8 8-77777777-0~~~======-|
D|------------------------------------------------------------0~~~======-|
                                                                
Solo                                                            x5
e|----------------------------------------------------------------|
B|----------------------------------------------------------------|
G|----------------------------------------------------------------|
D|-----------------------------------------------------101010-555-|
A|-00-15p0------0-17p0------0-----------00-15p0------0-101010-555-|
D|-00------17p0-0------19p0-0-17p0-19p0-00------17p0-0-101010-555-|
   ..           .           .           ..           .

Outro/Last Breakdown                  x4
e|0~~~~~----|---------------------------|-------|
B|0~~~~~----|---------------------------|-------|
G|0~~~~~----|---------------------------|-------|
D|0~~~~~----|---------------------------|-<5>~~-|
A|------0~~-|-000-000-00-00-00-00-00-00-|-------|
D|------0~~-|-000-000-00-00-00-00-00-00-|-------|
        .     ... ... .. .. .. .. .. ..
cont.                       x2                          x2
e|----------------------------|---------------------------|----||
B|----------------------------|---------------------------|----||
G|----------------------------|---------------------------|----||
D|----------------------------|---------------------------|-0~-||
A|-111-111-11-11-11-11-111111-|-000-000-00-00-00-00-00-00-|-0~-||
D|-222-222-22-22-22-22-222222-|-000-000-00-00-00-00-00-00-|-0~-||
   ... ... .. .. .. .. ......   ... ... .. .. .. .. .. ..

I'll add the rhythm part later



Tap to rate this tab
 
# A B C D E F G H I J K L M N O P Q R S T U V W X Y Z