Song name
# A B C D E F G H I J K L M N O P Q R S T U V W X Y Z

The Devil Wears Prada - Big Wiggly Style tab

Guitar 2/Rythm Guitar: Jeremy DePoyster
Tuning:Drop D
.= palm mute
*=Pinch Harmonic
^=Bend
~=Let Ring
h= Hammer On
P=Pull Of
                              
E|---------------------------|                     \   
B|---------------------------|                      \
G|---------------------------|                       \
D|---------------------------|                        \
A|000-000------0~0--00000000-|                         \
D|000-000------0~0--00000000-|                          \
  ... ...        .  ........                             \
E|-----------------------------|                          x2
B|-----------------------------|                         /
G|-----------------------------|                        /
D|-----------------------------|                       /
A|000-000------0~0-0~--00000000|                      /
D|000-000------0~0-0~--00000000|                     /
  ... ...        .     ........                     /
(Reapeat twice,but not the "8~7~^")
E|-------------------------------------|
B|-------------------------------------|
G|7--7--7--10-9-12-10-9--10-12-10------|
D|-00-00-00--0-0--0--0-00--0--0---8~7~^|        x2
A|-------------------------------------|
D|-------------------------------------|
   .. .. ..  . .  .  . ..  .  .
E|-------------------|
B|-------------------|
G|-------------------|
D|8~7~----------8-87~|
A|8~7~-00000000-8-87~|
D|8~7~-00000000-8-87~|
       ........
E|----------------------------------|
B|----------------------------------|
G|----------------------------------|
D|-----------------------------10h12|  <---------
A|000-000-7h8p7-000-000-000-7h8-----|           |
D|000-000-------000-000-000---------|           |
  ... ...       ... ... ...                     |
E|----------------------------------|           |
B|----------------------------------|           | (This One!!!!!)
G|----------------------------------|           |
D|----------------------------------|           |
A|000-000-7h8-000-000-000-8h10-7h8p7|           |
D|000-000-----000-000-000-----------|           |
  ... ...     ... ... ...                       |
                                                |
(Reapeat the first one once)--------------------|
E|-----------------------------|
B|-----------------------------|
G|-----------------------------|
D|---------------------------3*|
A|000-000-7h8p7-000-000-000----|          
D|000-000-------000-000-000----|           
  ... ...       ... ... ...
E|-----------------------------------------------|
B|-----------------------------------------------|
G|-----------------------------------------------|   (x2,but not the 
D|-------------------------------------------3*--|   Pinch Harmonic)
A|000-000-0-0-00000000-000-000-0-0--00000000---3*|
D|000-000-0-0-00000000-000-000-0-0--00000000-----|
  ... ... . . ........ ... ... . .  ........
E|--------|
B|--------|
G|--------|
D|7-5-3-3~|
A|7-5-3-3~|
D|7-5-3-3~|

"Walk to the sky!"
E|----------------------------------|
B|----------------------------------|
G|----------------------------------|
D|3-33333333333333-5-555555555555555|
A|3-33333333333333-5-555555555555555|
D|3-33333333333333-5-555555555555555|

E|----------------------------------|
B|----------------------------------|
G|----------------------------------|
D|0-00000000000000-0-000000000000000|
A|0-00000000000000-0-000000000000000|
D|0-00000000000000-0-000000000000000|

E|------------------------------------------------|
B|------------------------------------------------|
G|------------------------------------------------|
D|8-88888888888888-10-1010101010101010101010101010|
A|8-88888888888888-10-1010101010101010101010101010|
D|8-88888888888888-10-1010101010101010101010101010|

E|--------------------------------------|
B|--------------------------------------|
G|--------------------------------------|
D|0-00000000000000-0-00000000000000-0~0~|
A|0-00000000000000-0-00000000000000-0~0~|
D|0-00000000000000-0-00000000000000-0~0~|

 (If you don't get it,listen to the pattern on the song.)
E|---------------------------------------|
B|---------------------------------------|
G|---------------------------------------|  x4(after the second time,
D|----------------------------------7-5-3|     It goes slower)
A|0-0000000-----0-0-00000000--0-0-0-7-5-3|
D|0-0000000-----0-0-00000000--0-0-0-7-5-3|
  . .......     . . ........  . . .


E|-------------------------------------------------|
B|-------------------------------------------------|
G|-------------------------------------------------|
D|8888888888888888-10101010101010101010101010101010|
A|8888888888888888-10101010101010101010101010101010|
D|8888888888888888-10101010101010101010101010101010|


E|-------------------------------------------|
B|-------------------------------------------|
G|-------------------------------------------|
D|----------------------0~////////////////////
A|0-000000-000000-0-0-0-0~//////pickslide/////
D|0-000000-000000-0-0-0-0~////////////////////
  . ...... ...... . . .
E|-----------------------------------------------|
B|-----------------------------------------------|
G|-----------------------------------------------|
D|--------------------------------10-------------|     x2
A|5-----5p3h5-----7h8p7---12-10-8----10-8-12-10-8|
D|-00000-----00000-----000--0--0----0--0-0--0--0-|
   .....     .....     ...  .  .    .  . .  .  .

E|---------------------------------------------------|
B|---------------------------------------------------|
G|---------------------------------------------------|
D|-------------------------------------------------3*|   x2
A|0----00000--00000-------0000000-00000-00000000000--|
D|0----00000--00000-------0000000-00000-00000000000--|
  .    .....  .....       ....... ..... ...........
E|-------------------------------|
B|-------------------------------|
G|-------------------------------|
D|-------------------------------|
A|-----------------55555----5555-|
D|88888888877775555-----5555-----|

E|---------------------------------------------------------|
B|---------------------------------------------------------|
G|---------------------------------------------------------|
D|---------------------------------------------------------|
A|---------------------------------12121212--------10101010|
D|888888888101010101010121212121212--------10101010--------|

E|-------------------------------|
B|-------------------------------|
G|-------------------------------|
D|-------------------------------|
A|-----------------55555----5555-|
D|88888888877775555-----5555-----|

E|---------------------------------------------------------|
B|---------------------------------------------------------|
G|---------------------------------------------------------|
D|---------------------------------------------------------|
A|---------------------------------12121212--------15151515|
D|888888888101010101010121212121212--------10101010--------|

E|-------------------------------|
B|-------------------------------|
G|-------------------------------|
D|-------------------------------|
A|-----------------55555----5555-|
D|88888888877775555-----5555-----|

E|---------------------------------------------------------|
B|---------------------------------------------------------|
G|---------------------------------------------------------|
D|---------------------------------------------------------|
A|---------------------------------12121212--------10101010|
D|888888888101010101010121212121212--------10101010--------|

E|-------------------------------|
B|-------------------------------|
G|-------------------------------|
D|-------------------------------|
A|-----------------55555----5555-|
D|88888888877775555-----5555-----|

E|---------------------------------------------------------|
B|---------------------------------------------------------|
G|---------------------------------------------------------|
D|---------------------------------------------------------|
A|---------------------------------12121212--------15151515|
D|888888888101010101010121212121212--------10101010--------|
  (I don't know how many times to do the frets below,but I know it's rite.)
E|------------------------------------------------------|
B|555555555577778888888888121212121210101010101515151515|   x2
G|------------------------------------------------------|
D|------------------------------------------------------|
A|------------------------------------------------------|
D|------------------------------------------------------|

E|----------------------------|
B|----------------------------|
G|----------------------------|
D|----------------------------|
A|1717172020201919191919191919| <------
D|----------------------------|       |
                                      |
E|--------------------------------|   |
B|--------------------------------|   |
G|----------------1717171717171717|   |
D|--------15151515----------------|   |
A|15151515------------------------|   |
D|--------------------------------|   |
                                      |
    (Then go back to the---------------

E|------------------------------------|
B|------------------------------------|
G|191919191919191917171717171717171717|
D|------------------------------------|
A|------------------------------------|
D|------------------------------------|

E|----------------------------------------1313131313131313|
B|----------------1515151515151515------------------------|
G|1717171717171717----------------14141414----------------|
D|--------------------------------------------------------|
A|--------------------------------------------------------|
D|--------------------------------------------------------|

(Do it again but,the 13 is 15,the agian with the 13.)
E|17171717171717171515151515151515|
B|--------------------------------|
G|--------------------------------|
D|--------------------------------|
A|--------------------------------|
D|--------------------------------|

(Then, reapeat the 17 15 14 13/15 again with the 17 and 15)

E|---------13~|
B|---15~------|
G|17~---14~---|
D|------------|
A|------------|
D|------------|

E|---------15~|
B|---15~------|
G|17~---14~---|
D|------------|
A|------------|
D|------------|

YES!!!!!!!!!! Finally!!!!!!!!!!!!! I finished!!!!!!!!!!!!!!!!!!
You better use this tabs and spread it to your friends that play guitar because my butt hurts now.
AND!!!!!!!!!!!!
If you know someone that has the keys for this song and HTML Rulez D00d,
send the tabs to kuphunununapa@yahoo.com
PLEASE!!!!!!!!!!!!!!!!! 
Tap to rate this tab
# A B C D E F G H I J K L M N O P Q R S T U V W X Y Z