Song name
# A B C D E F G H I J K L M N O P Q R S T U V W X Y Z

The Devil Wears Prada - Ben Has A Kid tab

Artist: The Devil Wears Prada
Song: Ben Has a Kid
Album: With Roots Above and Branches Below

Tuning Drop D: 

D A D G B E

This song has a lot of delay
That's pretty much it

Watch this cover if you wanna see how it's played

http://www.youtube.com/watch?v=FCgrog2FiF8

I played some parts sliiiiiiightly differently
I've made changes concerning accuracy in this tab since then

With delay

e|------------------------------|
B|--7-7-7-7-----7-7-7-7---------|
G|--6-6-6-6-----6-6-6-6---------|
D|--0-0-0-0-----0-0-0-0---------|
A|----------0-0---------0-------|
D|----------0-0---------0-------|
            * *         *

With delay

e|--------------|
B|--7-----------|
G|--6---x16-----|
D|--0-----------|
A|--------------|
D|--------------|

e|------------------------------------------------------------|
B|-----------------------------------Repeat-twice-------------|
G|-------------10----9----------------------------------------|
D|--8-7-5-0-----X----X—-7h8p7-5-------------------------------|
A|--8-7-5-0-000-8-00-7----------8-------------0-00-00-0-00-00-|
D|--8-7-5-0-000---00--------------88888888-7\-0-00-00-0-00-00-|
            ***   **              ********    * ** ** * ** **

e|------------------------|
B|------------------------|
G|------------------------|
D|---------0-8-7-5-3---2--|
A|-0-00-00-0-8-7-5-3---2--|
D|-0-00-00-0-8-7-5-3---2--|
   * ** **

Repeat this bar twice
Palm mute accordingly

e|-------the-multipliers-are-just-to-help-you-read-the-numbers-better---------------|
B|----------------------------------------------------------------------------------|
G|----------------------------------------------------------------------------------|
D|---x8------x4---x2---------x16----------x8-----x4---x4---x4--------x6-------------|
A|-------------------------------------------------------------7h8--------7h8p8-----|
D|-00000000-3333-2222-3333333333333333-55555555-8888-7777-5555-----555555-----------|

e|----------------------------------------------------|
B|----------------------------------------------------|
G|----------------------------------------------------|
D|----------------------------------------------------|
A|-0000-0--0000-0----0000-0-0000-0---0----------------|
D|-0000-0--0000-0----0000-0-0000-0---1----------------|
   **** *  **** *    **** * **** *   *
      
e|----------------------------------------------------|
B|----------------------------------------------------|
G|----------------------------------------------------|
D|----------------------------------------------------|
A|----------------------------------------------------|
D|--0000-0--0000-0-8^*-0-10^*--0000-0--0000-0---------|
    **** *  **** *     *       **** *  **** *

With delay

e|--------------|
B|--7-----------|
G|--6---x16-----|
D|--0-----------|
A|--------------|
D|--------------|

Repeat the following 2 bars 4 times
With delay

e|------------8---8---------------10---10------------|
B|----6---6-----6---6-----6---6------8----8----------|
G|--7---7---7-----------7---7---7--------------------|
D|---------------------------------------------------|
A|---------------------------------------------------|
D|---------------------------------------------------|
    * * * * *           * * * * *

e|-----------------15----15---------------------12h13-12\10--|
B|-----13----13-------13----13------13----13-----------------|
G|--14----14----14---------------14----14----14--------------|
D|-----------------------------------------------------------|
A|-----------------------------------------------------------|
D|-----------------------------------------------------------|
     *  *  *  *  *                *  *  *  *  *

With delay

e|--10-many-times-eventually fading out---------------|
B|----------------------------------------------------|
G|----------------------------------------------------|
D|----------------------------------------------------|
A|----------------------------------------------------|
D|----------------------------------------------------|

Repeat 4 times

e|----------------------------------------------------|
B|----------------------------------------------------|
G|-----------------------x16--------------------------|
D|--0-------------------------------------------------|
A|--0-0-0-\5-5-5-5-5-5-5-5-5-5-5-5-5-5^-5^-5^---------|
D|--0-0-0---------------------------------------------|
      * *

End in

e|-----------------------0----------------------------|
B|---5*------------------0----------------------------|
G|---5*-(harmonics)--or--0—which also fits------------|
D|---5*-----------------------------------------------|
A|----------------------------------------------------|
D|----------------------------------------------------|

Then repeat again 4 times

e|----------------------------------------------------|
B|----------------------------------------------------|
G|-----------------------x16--------------------------|
D|--0-------------------------------------------------|
A|--0-0-0-\5-5-5-5-5-5-5-5-5-5-5-5-5-5^-5^-5^---------|
D|--0-0-0---------------------------------------------|	
      * *

e|-----------------|
B|-----------------|
G|-----------------|
D|-----------------|
A|--0--0--0--------|
D|--0--0--0--------|
    *  *  *

e|-----------------------------------------|
B|-----------------------------------------|
G|-------x16-------------------------------|
D|-----------------------------------------|
A|-0000000000000000---4-3-2-1-2---0--------|
D|-0000000000000000---5-4-3-2-3---1--------|
   ****************   * * * * *   *

e|-------------------------------------------|
B|-------------------------------------------|
G|-------x16---------------------------------|
D|-------------------------------------------|
A|-0000000000000000--0--4-3-2-1-2---0--------|
D|-0000000000000011--1--5-4-3-2-3---1--------|
   ****************  *  * * * * *   *

The parentheses is for that that is being played in the background

e|----------------------------------------------------|
B|----------------------------------------------------|
G|----------------------------------------------------|
D|----------------------------------------------------|
A|-0-0-0-0-(0)-(0)-0-0-0-0-(0)-(0)-0-0-(0)-(0)--------|
D|-1-1-1-1-(1)-(1)-1-1-1-1-(1)-(1)-1-1-(1)-(1)--------|
   * * * *  *   *  * * * *  *   *  * *  *   *

e|-----------------------------------------------------------|
B|-----------------------------------------------------------|
G|-----------------------------------------------------------|
D|-----------------------------------------------------------|
A|-0-0-0-0—0----0--0-0-0-0--0---0----------------------------|
D|-1-1-1-1(1)--(1)-1-1-1-1-(1)-(1)-5\-(whammy-down-or-slide)-|
   * * * * *    *  * * * *  *   *

e|----------------------------------------------------|
B|----------------------------------------------------|
G|----------------------------------------------------|
D|----------------------------------------------------|
A|-0-0-0-0---0-0-0-0—--0-0---0-0-0-0---0-0-0-0---0-0--|
D|-0-0-0-0---0-0-0-0—--0-0---0-0-0-0---0-0-0-0---0-0--|
   * * * *   * * * *   * *   * * * *   * * * *   * *
      
The first time is played differently
Use delay

e|------------8---8---------------10---10------------|
B|----6---6-----6---6-----6---6------8----8----------|
G|--7---7---7-----------7---7---7--------------------|
D|---------------------------------------------------|
A|---------------------------------------------------|
D|---------------------------------------------------|
    * * * * *           * * * * *

e|-----------------17----15---------------------17----15-----|
B|-----13----13-------15----15------13----13-------15--------|
G|--14----14----14---------------14----14----14--------------|
D|-----------------------------------------------------------|
A|-----------------------------------------------------------|
D|-----------------------------------------------------------|
     *  *  *  *  *                *  *  *  *  *

Repeat the following two bars 4 times
Use delay

e|------------8---8---------------10---10------------|
B|----6---6-----6---6-----6---6------8----8----------|
G|--7---7---7-----------7---7---7--------------------|
D|---------------------------------------------------|
A|---------------------------------------------------|
D|---------------------------------------------------|
    * * * * *           * * * * *

e|-----------------15----15---------------------12h13-12\10--|
B|-----13----13-------13----13------13----13-----------------|
G|--14----14----14---------------14----14----14--------------|
D|-----------------------------------------------------------|
A|-----------------------------------------------------------|
D|-----------------------------------------------------------|
     *  *  *  *  *                *  *  *  *  *

Use delay

e|--10-x-16-12-x16-8-x16-10-x16-----------------------|
B|----------------------------------------------------|
G|----------------------------------------------------|
D|----------------------------------------------------|
A|----------------------------------------------------|
D|----------------------------------------------------|

Repeat twice, but the second time around don’t palm mute the 0’s

e|-----------------|-------|-------|-------|-------|-------|
B|-----------------|--1st--|--2nd--|--3rd--|--4th--|--end--|
G|-----------------|--time-|--time-|--time-|--time-|--in---|
D|-----------------|-------|-------|-------|-------|-------|
A|-1------8--------|-12-12-|-13-13-|-12-12-|-10-10-|-------|
D|---0000---000000-|-------|-------|-------|-------|-00-00-|
     ****   ******

Tap to rate this tab
 
# A B C D E F G H I J K L M N O P Q R S T U V W X Y Z