Song name
# A B C D E F G H I J K L M N O P Q R S T U V W X Y Z

The Devil Wears Prada - Assistant To The Regional Manager tab

Artist: The Devil Wears Prada
Album: With Roots Above and Branches Below
Song: Assistant to the Regional Manager

Tuning: Drop B
From standard tune the E string down to D
Then tune down all of the strings (including the just
down-tuned E string) 3 half steps(?)

B F# B E G# C#

Some parts of this tab have been out for a while
(ex. sweeping part, variations of main riff, etc.)
However, this tab contains my version of some parts,
corrections on the already existing parts, additional
parts, and directions as well as the aforementioned content
presented in an organized manner

The greatest addition, however, is the inclusion of both
lead and rhythm, presented on a separate tab each

Note: Lead and rhythm alternate between both guitars (and speakers)
However, due to conveniency issues, I just put lead as one tab and
rhythm as another

LEAD

With delay

C#|-------------------------------------|
G#|-----13------------------------------|
E |-----------12-14----14-12------------|
B |--12----15-------12-------15---------|
F#|-------------------------------------|
B |-------------------------------------|

Repeat the following bar twice

C#|--------------------------------------------------------------------|
G#|--------------------------------------------------------------------|
E |--------------------------------------------------------------------|
B |--------------------------------------------------------------------|
F#|------8------7-7\--------------------8------7------8---8--8/12-10-8-|
B |-0000---0000-------0h8-8-0h3-3--0000---0000---0000---0---0----------|
    ****   ****       *     *      ****   ****   ****   *   *

C#|--------------------------------------------------------|
G#|--------------------------------------------------------|
E |--------------------------------------------------------|
B |-0-0--0---0-0--0----------0--0-0--0---0-0--0----------0-|
F#|-0-0--0---0-0--0-----0-0-00--0-0--0---0-0--0-----0-0-00-|
B |-0-0--0---0-0--0-----0-0-00--0-0--0---0-0--0-----0-0-00-|
                        * * *                       * * *

C#|--------------------------------------------------------|
G#|--------------------------------------------------------|
E |--------------------------------------------------------|
B |-8-8--8---8-8--8----------8--5-5--5---5-5--5----------5-|
F#|-8-8--8---8-8--8-----8-8-88--5-5--5---5-5--5-----5-5-55-|
B |-8-8--8---8-8--8-----8-8-88--5-5--5---5-5--5-----5-5-55-|
                        * * *                       * * *

Repeat the following 2 bars twice (with delay) (standard sweeping
from KsE's tab [version 1 I believe])

C#|--17p13----------13h17p13----------------------------------------|
G#|--------15----15----------15-------------------------------------|
E |-----------14----------------14----14h15p14----------------------|
B |--------------------------------------------15h17-14h15p14-------|
F#|-----------------------------------------------------------15h17-|
B |-----------------------------------------------------------------|

C#|--17p13----------13h17p13-------------------------------17/20-|
G#|--------15----15----------15----------------------------------|
E |-----------14----------------14----14h15p14-------17\15-------|
B |--------------------------------------------15h17-------------|
F#|--------------------------------------------------------------|
B |--------------------------------------------------------------|

C#|-------------------------------------------|
G#|-------------------------------------------|
E |-------------------------------------------|
B |--0-0-0-0-0-0-0-0-----------------------0--|
F#|--0-0-0-0-0-0-0-0-----------------------0--|
B |--0-0-0-0-0-0-0-0------pick-slide-------0--|

Repeat the following bars twice

C#|---------------------------------------|
G#|---------------------------------------|
E |---------------------------------------|
B |--5---7---5-8---8---7---7~-5-----------|
F#|--5---------8----------------8-7-7h8p7-|
B |--5-5---5---8-8---8--------------------|
       *   *     *   * 

C#|--------------------------------------|
G#|--------------------------------------|
E |--------------------------------------|
B |--5---7---5-8---8---7-----------------|
F#|--5---------8---------000-000-000-000-|
B |--5-5---5---8-8---8---000-000-000-000-|
       *   *     *   *   *** *** *** ***

Listen to the right speaker (lead for this part)
I'm pretty sure this is what is sounds like

Play the following two bars twice

C#|-------------------------------------------------------------------|
G#|-------------------------------------------------------------------|
E |-------------------------------------------------------------------|
B |------------------------------------------0h7h10-0h7h10-05h8-0h3h7-|
F#|--000-000-000-000-000-000-000-----000-000--------------------------|
B |--000-000-000-000-000-000-000-----000-000--------------------------|
     *** *** *** *** *** *** ***     *** ***

C#|-------------------------------------------------------------------|
G#|-------------------------------------------------------------------|
E |-------------------------------------------------------------------|
B |-------------------------------------------0h5h8-0h3h7-0h5h8-0h2h5-|
F#|--000-000-000-000-000-000-000-----000-000--------------------------|
B |--000-000-000-000-000-000-000-----000-000--------------------------|
     *** *** *** *** *** *** ***     *** ***

Repeat the following two bars three times (With delay)

C#|-----------------------------------------------------|
G#|--15-------15-------15------18----18-18-------18-----|
E |-----17-17----17-17----17------17-------17-17----17--|
B |-----------------------------------------------------|
F#|-----------------------------------------------------|
B |-----------------------------------------------------|

C#|--------------------------17----17----17----17----|
G#|--15-------15-------15----------------------------|
E |-----17-17----17-17----17----17----17----17----17-|
B |--------------------------------------------------|
F#|--------------------------------------------------|
B |--------------------------------------------------|

The “ stands for tremolo picking (fast picking)
Use delay

C#|----------------------------------------------------20"-18"-|
G#|--15-------15-------15------18----18-18-------18------------|
E |-----17-17----17-17----17------17-------17-17----17---------|
B |------------------------------------------------------------|
F#|------------------------------------------------------------|
B |------------------------------------------------------------|

The spaces should give you an idea of how long
You should tremolo pick each note (use delay)

C#|-17”-20”---------------17”-20”-------------------|
G#|---------17”-18”---------------17”-18”---15”-----|
E |-------------------------------------------------|
B |-------------------------------------------------|
F#|-------------------------------------------------|
B |-------------------------------------------------|

C#|-17”-20”--------------------22”---22\--|
G#|---------17”-18”------20”--------------|
E |---------------------------------------|
B |---------------------------------------|
F#|---------------------------------------|
B |---------------------------------------|

Repeat the following bar twice

C#|--------------------------------------------------------------------|
G#|--------------------------------------------------------------------|
E |--------------------------------------------------------------------|
B |--------------------------------------------------------------------|
F#|------8------7-7\--------------------8------7------8---8--8/12-10-8-|
B |-0000---0000-------0h8-8-0h3-3--0000---0000---0000---0---0----------|
    ****   ****       *     *      ****   ****   ****   *   *

C#|----------------------|
G#|----------------------|
E |----------------------|
B |-------------8-3------|
F#|--12-10-8----8-3------|
B |-------------8-3------|

C#|----------------------------------------------------------|
G#|----------------------------------------------------------|
E |----------------------------------------------------------|
B |----------------------------------------------------------|
F#|------------------0-3-2-1-0-1-2-------------------0-3-2-0-|
B |--0-1-1---0-1-1---0-3-2-1-0-1-2---0-1-1---0-1-1---0-3-2-0-|
     *       *       * * * * * * *   *       *       * * * *

Repeat the following bar twice

C#|---------------------------------------------------------|
G#|---------------------------------------------------------|
E |---------------------------------------------------------|
B |---------------------------------------------------------|
F#|-00-00--0--0----0---0-0-0---00-00--0--0----0-0-0000-12\--|
B |-00-00--0--0----0---0-0-0---00-00--0--0----0-0-0000-12\--|
    ** **  *  *    *   * * *   ** **  *  *    * * ****
 

C#|---------------------------------------------------------|
G#|---------------------------------------------------------|
E |---------------------------------------------------------|
B |---------------------------------------------------------|
F#|-00-00--0--0----0---0-0-0---00-00--0--0----0-3-2-1-0-1-2-|
B |-11-11--1--1----1---1-1-1---11-11--1--1----0-3-2-1-0-1-2-|
    ** **  *  *    *   * * *   ** **  *  *    * * * * * * *

C#|------------------------------------------------------|
G#|------------------------------------------------------|
E |------------------------------------------------------|
B |------------------------------------------------------|
F#|-00-00--0--0----0---0-0-0---00-00--0--0----0-0-00000--|
B |-00-00--0--0----0---0-0-0---00-00--0--0----0-0-00000--|
    ** **  *  *    *   * * *   ** **  *  *    * * *****

RHYTHM

C#|-------------------------------------|
G#|-fade-in-----------------------------|
E |-------------------------------------|
B |--<0---0-0-0-0-0-0-0-0---------------|
F#|--<0---0-0-0-0-0-0-0-0---------------|
B |--<0---0-0-0-0-0-0-0-0---pick-slide--|

C#|---------------------------------------------|
G#|---------------------------------------------|
E |---------------------------------------------|
B |-8------5------0-------8------5------0-------|
F#|-8--x8--5--x8--0--x16--8--x8--5--x8--0--x16--|
B |-8------5------0-------8------5------0-------|

Repeat the following bar twice

C#|--------------------------------------------------------------------|
G#|--------------------------------------------------------------------|
E |--------------------------------------------------------------------|
B |--------------------------------------------------------------------|
F#|------8------7-7\--------------------8------7------5---5--5/8-7-5---|
B |-0000---0000-------0h8-8-0h3-3--0000---0000---0000---0---0----------|
    ****   ****       *     *      ****   ****   ****   *   *

Repeat the following two bars twice

C#|--------------------------------------------------------|
G#|--------------------------------------------------------|
E |--------------------------------------------------------|
B |-0-0--0---0-0--0----------0--0-0--0---0-0--0----------0-|
F#|-0-0--0---0-0--0-----0-0-00--0-0--0---0-0--0-----0-0-00-|
B |-0-0--0---0-0--0-----0-0-00--0-0--0---0-0--0-----0-0-00-|
                        * * *                       * * *

C#|--------------------------------------------------------|
G#|--------------------------------------------------------|
E |--------------------------------------------------------|
B |-8-8--8---8-8--8----------8--5-5--5---5-5--5----------5-|
F#|-8-8--8---8-8--8-----8-8-88--5-5--5---5-5--5-----5-5-55-|
B |-8-8--8---8-8--8-----8-8-88--5-5--5---5-5--5-----5-5-55-|
                        * * *                       * * *

C#|--------------------------------------------|
G#|--------------------------------------------|
E |--------------------------------------------|
B |--0-0-0-0-0-0-0-0-----------------------0---|
F#|--0-0-0-0-0-0-0-0-000000000000000000000-0---|
B |--0-0-0-0-0-0-0-0-000000000000000000000-0---|
                     *********************

Repeat the following two bars twice 
(don’t palm mute the first set of 0’s)

C#|----------------------------------------|
G#|----------------------------------------|
E |----------------------------------------|
B |--5---------8---------------------------|
F#|--5---8---7-8---10---8-000-000-000-000--|
B |--5-5---5---8-8----8---000-000-000-000--|
       *   *     *    *

C#|----------------------------------------|
G#|----------------------------------------|
E |----------------------------------------|
B |--5---------8---------------------------|
F#|--5---8---7-8---10---8-000-000-000-000--|
B |--5-5---5---8-8----8---000-000-000-000--|
       *   *     *    *   *** *** *** ***

Play the following two bars twice 
Left speaker (pretty sure this is right)

C#|----------------------------------------------------------------------|
G#|----------------------------------------------------------------------|
E |----------------------------------------------------------------------|
B |----------------------------------------------------------------------|
F#|--000-000-000-000-000-000-000-----000-000--0h8h12-0h8h12-0h7h10-0h5h8-|
B |--000-000-000-000-000-000-000-----000-000-----------------------------|
     *** *** *** *** *** *** ***     *** ***

C#|----------------------------------------------------------------------|
G#|----------------------------------------------------------------------|
E |----------------------------------------------------------------------|
B |----------------------------------------------------------------------|
F#|--000-000-000-000-000-000-000-----000-000--0h7h10-0h5h8-0h7h10-0h3h7--|
B |--000-000-000-000-000-000-000-----000-000-----------------------------|
     *** *** *** *** *** *** ***     *** ***

C#|---------------------------------------------|
G#|---------------------------------------------|
E |---------------------------------------------|
B |-0-------------------------------------------|
F#|-0--------0--0--0---0--0--0---0--------------|
B |-0--------0--0--0---0--0--0---0--------------|
             *  *  *   *  *  *   *
             
C#|----------------------------------------------|
G#|----------------------------------------------|
E |----------------------------------------------|
B |--0-------3-------0-------5------8------------|
F#|--0--x16--3--x16--0--x16--5--x8--8--x8--------|
B |--0-------3-------0-------5------8------------|

C#|----------------------------------------------|
G#|----------------------------------------------|
E |----------------------------------------------|
B |----------------------------------------------|
F#|--0--x16--3--x16--0--x16--5--x8--8--x8--------|
B |--0-------3-------0-------5------8------------|
     *       *       *       *      *

Repeat the following bar twice

C#|--------------------------------------------------------------------|
G#|--------------------------------------------------------------------|
E |--------------------------------------------------------------------|
B |--------------------------------------------------------------------|
F#|------8------7-7\--------------------8------7------5---5--5/8-7-5---|
B |-0000---0000-------0h8-8-0h3-3--0000---0000---0000---0---0----------|
    ****   ****       *     *      ****   ****   ****   *   *

C#|----------------------|
G#|----------------------|
E |----------------------|
B |-------------8-3------|
F#|--8-7-5------8-3------|
B |-------------8-3------|


C#|----------------------------------------------------------|
G#|----------------------------------------------------------|
E |----------------------------------------------------------|
B |----------------------------------------------------------|
F#|------------------0-3-2-1-0-1-2-------------------0-3-2-0-|
B |--0-1-1---0-1-1---0-3-2-1-0-1-2---0-1-1---0-1-1---0-3-2-0-|
     *       *       * * * * * * *   *       *       * * * *

Repeat the following bar twice

C#|---------------------------------------------------------|
G#|---------------------------------------------------------|
E |---------------------------------------------------------|
B |---------------------------------------------------------|
F#|-00-00--0--0----0---0-0-0---00-00--0--0----0-0-0000-12\--|
B |-00-00--0--0----0---0-0-0---00-00--0--0----0-0-0000-12\--|
    ** **  *  *    *   * * *   ** **  *  *    * * ****
 
C#|---------------------------------------------------------|
G#|---------------------------------------------------------|
E |---------------------------------------------------------|
B |---------------------------------------------------------|
F#|-00-00--0--0----0---0-0-0---00-00--0--0----0-3-2-1-0-1-2-|
B |-11-11--1--1----1---1-1-1---11-11--1--1----0-3-2-1-0-1-2-|
    ** **  *  *    *   * * *   ** **  *  *    * * * * * * *

C#|------------------------------------------------------|
G#|------------------------------------------------------|
E |------------------------------------------------------|
B |------------------------------------------------------|
F#|-00-00--0--0----0---0-0-0---00-00--0--0----0-0-00000--|
B |-00-00--0--0----0---0-0-0---00-00--0--0----0-0-00000--|
    ** **  *  *    *   * * *   ** **  *  *    * * *****


Tap to rate this tab
# A B C D E F G H I J K L M N O P Q R S T U V W X Y Z