Song name
# A B C D E F G H I J K L M N O P Q R S T U V W X Y Z

The Devil Wears Prada - Still Fly tab

intro (no vocals)
e|------------------------------------------------------------------| 
B|------------------------------------------------------------------|
G|------14-14~-----12p10-12p10--------------14-14~----14/17-15-14~--|
D|--12~------------------------12-12~-----12~-----------------------|
A|------------------------------------------------------------------|
D|------------------------------------------------------------------| x2

"gator boots, with the pimped out Gucci suit... ...cause i'm still fly"
e|-----------------------------------------------------------------| 
B|-----------------------------------------------------------------|
G|------14-14~-----12p10-12p10-------------14-14~----14/17-15-14~--|
D|--12~------------------------1212~-----12~-----------------------|
A|-----------------------------------------------------------------|
D|-----------------------------------------------------------------| x2

"GOTCHA CAR, PLAY GEMS ON SHINE...  ...STRAIGHT TO THE MALL AND TURN OUT THE INSIDE"
e|---------------------------------------------------|
B|---------------------------------------------------|
G|---------------------------------------------------|
D|---------------------------------------------------|
A|--00--00-00--1010--1010-1010--88--88-88--77--77-77-|
D|--00--00-00--1010--1010-1010--88--88-88--77--77-77-|
    **  ** **   * *   * *  * *  **  ** **  **  ** **

"PROWLER GUCCI FULL LENGTH LEATHER" (play hella fast)
e|--------------------------------|
B|--------------------------------|
G|--------------------------------|
D|--------------------------------|
A|--0-000-000-000-000-000-000-000-|
D|--0-000-000-000-000-000-000-000-|
    * *** *** *** *** *** *** ***

"BURBONS COOLER COOGI SWEATER"  
e|------------------------------------------------------|
B|------------------------------------------------------|
G|------------------------------------------------------|
D|------------------------------------------------------|
A|--10-101010-101010-101010-101010-101010-101010-101010-|
D|--10-101010-101010-101010-101010-101010-101010-101010-|
    *  * * *   * * *  * * *  * * *  * * *  * * *  * * * 

"TWENTY INCHES POP MY FEATHER"
e|--------------------------------|
B|--------------------------------|
G|--------------------------------|
D|--------------------------------|
A|--8-888-888-888-888-888-888-888-|
D|--8-888-888-888-888-888-888-888-|
    * *** *** *** *** *** *** ***

"THE BIRD MAN, DADDY I'LL FLY IN ANY WEATHER"
e|-----|
B|-----|
G|-----|
D|-----|
A|--7--|
D|--7--|

"ALLIGATOR SEATS WITH THE HEAD ON THE INSIDE"
e|-------------------|
B|-------------------|
G|-------------------|
D|-------------------|
A|--00-00-00-00-0000-|
D|--00-00-00-00-0000-|
    ** ** ** ** ****

"SWINE ON THE DASH, G-WAGON SO FLY"
e|-------------------------------|
B|-------------------------------|
G|-------------------------------|
D|-------------------------------|
A|--1010-1010-1010-1010-10101010-|
D|--1010-1010-1010-1010-10101010-|
     * *  * *  * *  * *  * * * *

"NUMBA 1 DON'T TANGLE AND TWISTLE"
e|-------------------|
B|-------------------|
G|-------------------|
D|-------------------|
A|--88-88-88-88-8888-|
D|--88-88-88-88-8888-|
    ** ** ** ** ****

"WHEN IT COMES TO THESE CARS I AM THAT NIGGA"
e|-------------------|
B|-------------------|
G|-------------------|
D|-------------------|
A|--77-77-77-77-7777-|
D|--77-77-77-77-7777-|
    ** ** ** ** ****

"THE ??? GUCCI WITH THE MATHCING INTERIOR" (play hella fast again)
e|--------------------------------|
B|--------------------------------|
G|--------------------------------|
D|--------------------------------|
A|--0-000-000-000-000-000-000-000-|
D|--0-000-000-000-000-000-000-000-|
    * *** *** *** *** *** *** ***

"THREE WHEEL DRIVE WITH THE TIRE IN THE MIDDLE"  
e|------------------------------------------------------|
B|------------------------------------------------------|
G|------------------------------------------------------|
D|------------------------------------------------------|
A|--10-101010-101010-101010-101010-101010-101010-101010-|
D|--10-101010-101010-101010-101010-101010-101010-101010-|
    *  * * *   * * *  * * *  * * *  * * *  * * *  * * * 

"IT'S FRESH AND STUNNA, AND WE LIKE BROTHAS"
e|--------------------------------|
B|--------------------------------|
G|--------------------------------|
D|--------------------------------|
A|--8-888-888-888-888-888-888-888-|
D|--8-888-888-888-888-888-888-888-|
    * *** *** *** *** *** *** ***

"WE SHINE LIKE PAINT DADDY THIS OUR SUMMER"
e|--------------------------------|
B|--------------------------------|
G|--------------------------------|
D|--------------------------------|
A|--7-777-777-777-777-777-777-777-|
D|--7-777-777-777-777-777-777-777-|
    * *** *** *** *** *** *** ***

CHORUS
"gator boots, with the pimped out gucci suit... ...but i'm hood rich, da da da da"
e|------------------------------------------------------------------| 
B|------------------------------------------------------------------|
G|------14-14~-----12p10-12p10--------------14-14~----14/17-15-14~--|
D|--12~------------------------12-12~-----12~-----------------------|
A|------------------------------------------------------------------|
D|------------------------------------------------------------------| x4

"DID YOU EVER SEE THE CROCODILE SEATS IN THE TRUCK... ...WHERE YOU CAN FIND ME"
e|---------------------------------------------------|
B|---------------------------------------------------|
G|---------------------------------------------------|
D|---------------------------------------------------|
A|--00--00-00--1010--1010-1010--88--88-88--77--77-77-|
D|--00--00-00--1010--1010-1010--88--88-88--77--77-77-|
    **  ** **   * *   * *  * *  **  ** **  **  ** **

"PUSHING THROUGH THE PARKING LOT ON 24'S"
e|--------------|
B|--------------|
G|--------------|
D|--------------|
A|-0-8~---00-00-|
D|-0------00-00-|
   *      ** **

"CADILLAC ESCALADE WITH THE CHROMED OUT NOSE"
e|--------------------|
B|--------------------|
G|--------------------|
D|----10~-------------|
A|-10-------1010-1010-|
D|-10-------1010-1010-|    
    *        * *  * *

"WITH THE NAVIGATION ARROW HEADED STRAIGHT TO YOUR SPOT"
e|-----------------|
B|-----------------|
G|-----------------|
D|----8~-----------|
A|--8--------88-88-|
D|--8--------88-88-|    
    *        ** **

"WHERE YOUR WIFE REALLY LOVE ME CAUSE MY SEX IS SO HOTT"
e|-----------------|
B|-----------------|
G|-----------------|
D|----7~-----------|
A|--7--------77-77-|
D|--7--------77-77-|    
    *        ** **

"PUT THE CADDY UP START THE 3 WHEEL BENZ"
e|------------|
B|------------|
G|------------|
D|------------|
A|-0-0-00-0-0-|
D|-0-0-00-0-0-| 
       **

"HYPER WHITE LIGHTS ULTRA VIOLET LENS"
e|------------|
B|------------|
G|------------|
D|------------|
A|-0-0-00-0-0-|
D|-0-0-00-0-0-| 
       **

"SUMITOMO TIRES AND THEY GOTTA BE RUN FLAT"
e|------------|
B|------------|
G|------------|
D|------------|
A|-0-0-00-0-0-|
D|-0-0-00-0-0-| 
       **

"T.V. WHERE THE HORN GO, BOY CAN YOU TOP THAT?"
e|------------|
B|------------|
G|------------|
D|------------|
A|-0-0-00-0-0-|
D|-0-0-00-0-0-| 
       **

"IM'S SHOW YOU SOME SHIT ROOKIE... ...4 15'S DIDN'T SEE NO WIRES"
e|----------------|
B|----------------|
G|----------------|
D|----------------|
A|-0~----0~----0~-|
D|-0~----0~----0~-|

"THEN I HEARD BOOOM FROM THE AMPLIFIERS"
e|-------|
B|-------|
G|-------|
D|-------|
A|-00-0~-|
D|-00-0~-|
   **

(bridge, just palm mute the low D and A string,
timing is too weird to tab, but simple to play)


(right before vocals again)
e|-------------|
B|-------------|
G|-------------|
D|-------------|
A|-00-22-33-55-|
D|-00-22-33-55-|

"LET ME SLIDE IN THE BENZ... ...IN THE CADILLAC TRUCK 24'S WITH 10'S"
e|---------------------------------------------|
B|---------------------------------------------|
G|---------------------------------------------|
D|---------------------------------------------|
A|-7777----5555----3333----2222-2222-2222-2222-|
D|-7777----5555----3333----2222-2222-2222-2222-|

"LOOKIN AT MY GUCCI IT'S ABOUT THAT TIME"
e|--------------------|
B|--------------------|
G|--------7/9--7-5----|
D|--------------------|
A|-7777---------------|
D|-7777---------------|

"6 BAD BROADS FLYIN IN AT 9"
e|---------------------|
B|---------------------|
G|--------7/9--7--9/10-|
D|---------------------|
A|-5555----------------|
D|-5555----------------|

"NEW SUBERBAN TRUCK WITH THE PORNO SHOWIN"
e|---------------------|
B|---------------------|
G|--------7/9--7--5----|
D|---------------------|
A|-3333----------------|
D|-3333----------------|

"UP AND DOWN AND UP THEY GO AND"
e|---------------------|
B|---------------------|
G|---------------------|
D|---------------------|
A|-2222-2222-2222-2222-|
D|-2222-2222-2222-2222-|

"BODIES ON THE ROADSTER LEXUS YOU KNOW"
e|---------------------|
B|---------------------|
G|---------------------|
D|---------------------|
A|-0000-0000-0000-0000-|
D|-0000-0000-0000-0000-|

"WITH THE HARD TOP BEAMER, MOMMY THAT'S YOUR TRUCK"
e|-------------------------------------|
B|-------------------------------------|
G|-------------------------------------|
D|-------------------------------------|
A|-10101010-10101010-10101010-10101010-|
D|-10101010-10101010-10101010-10101010-|

"I'M COMIN UP THE HOOD BEEN LOVELY"
e|---------------------|
B|---------------------|
G|---------------------|
D|---------------------|
A|-8888-8888-8888-8888-|
D|-8888-8888-8888-8888-|

"NEW SHOES ON THE WHIP AND I WAKE UP THE BUBBLY"
e|---------------------|
B|---------------------|
G|---------------------|
D|---------------------|
A|-7777-7777-7777-7777-|
D|-7777-7777-7777-7777-|

"430 LEX WITH CONVERTABLE TOP"
e|----------------------|
B|----------------------|
G|----------------------|
D|----------------------|
A|-0~-00-0000-0000-0000-|
D|-0~-00-0000-0000-0000-|
      ** **** **** ****    

"THE RIMS KEEP SPINNIN EVERY TIME I STOP"
e|-------------------------------------|
B|-------------------------------------|
G|-------------------------------------|
D|-------------------------------------|
A|-10~-1010-10101010-10101010-10101010-|
D|-10~-1010-10101010-10101010-10101010-|
        * *  * * * *  * * * *  * * * *

"GOTTA SUPERMAN BENZ AND I SCORED IT FROM SHAQ"
e|----------------------|
B|----------------------|
G|----------------------|
D|----------------------|
A|-8~-88-8888-8888-8888-|
D|-8~-88-8888-8888-8888-|
      ** **** **** ****

"WITH A SCHOOL CADDY WITH A *diamond in the back*"
e|------------|
B|------------|
G|------------|
D|------------|
A|-7~-77-7777-|
D|-7~-77-7777-|
      ** ****

chorus
"gator boots, with the pimped out gucci suit... ... but i'm hood rich, da da da da"
e|------------------------------------------------------------------| 
B|------------------------------------------------------------------|
G|------14-14~-----12p10-12p10--------------14-14~----14/17-15-14~--|
D|--12~------------------------12-12~-----12~-----------------------|
A|------------------------------------------------------------------|
D|------------------------------------------------------------------| x4

end on this
e|----|
B|----|
G|----|
D|----|
A|-0~-|
D|-0~-|

END!!!!









**************GUITAR 2*********************GUITAR 2*********************GUITAR 2*****************








GUITAR 2 (rythym, left headphone)

intro
e|-----------------------|
B|-----------------------|
G|-----------------------|
D|-----------------------|
A|--0~---10~---8~---7~---|
D|--0~---10~---8~---7~---| X2

"gator boots, with the pimped out Gucci suit... ...cause i'm still fly"
e|---------------------------------------------------------------------|
B|---------------------------------------------------------------------|
G|---------------------------------------------------------------------|
D|---------------------------------------------------------------------|
A|--000--000-000--101010--101010-101010--888--888-888--777--777-777----|
D|--000--000-000--101010--101010-101010--888--888-888--777--777-777----| X2
    ***  *** ***   * * *   * * *  * * *  ***  *** ***  ***  *** *** 

"GOTCHA CAR, PLAY GEMS ON SHINE..."
e|---------------------------------------------------|
B|---------------------------------------------------|
G|---------------------------------------------------|
D|---------------------------------------------------|
A|--00--00-00--1010--1010-1010--88--88-88--77--77-77-|
D|--00--00-00--1010--1010-1010--88--88-88--77--77-77-|
    **  ** **   * *   * *  * *  **  ** **  **  ** **

"PROWLER GUCCI FULL LENGTH LEATHER" (play hella fast)
e|--------------------------------|
B|--------------------------------|
G|--------------------------------|
D|--------------------------------|
A|--0-000-000-000-000-000-000-000-|
D|--0-000-000-000-000-000-000-000-|
    * *** *** *** *** *** *** ***

"BURBONS COOLER COOGI SWEATER"  
e|------------------------------------------------------|
B|------------------------------------------------------|
G|------------------------------------------------------|
D|------------------------------------------------------|
A|--10-101010-101010-101010-101010-101010-101010-101010-|
D|--10-101010-101010-101010-101010-101010-101010-101010-|
    *  * * *   * * *  * * *  * * *  * * *  * * *  * * * 

"TWENTY INCHES POP MY FEATHER"
e|--------------------------------|
B|--------------------------------|
G|--------------------------------|
D|--------------------------------|
A|--8-888-888-888-888-888-888-888-|
D|--8-888-888-888-888-888-888-888-|
    * *** *** *** *** *** *** ***

"THE BIRD MAN, DADDY I'LL FLY IN ANY WEATHER"
e|-----|
B|-----|
G|-----|
D|-----|
A|--7--|
D|--7--|

"ALLIGATOR SEATS WITH THE HEAD ON THE INSIDE"
e|-------------------|
B|-------------------|
G|-------------------|
D|-------------------|
A|--00-00-00-00-0000-|
D|--00-00-00-00-0000-|
    ** ** ** ** ****

"SWINE ON THE DASH, G-WAGON SO FLY"
e|-------------------------------|
B|-------------------------------|
G|-------------------------------|
D|-------------------------------|
A|--1010-1010-1010-1010-10101010-|
D|--1010-1010-1010-1010-10101010-|
     * *  * *  * *  * *  * * * *

"NUMBA 1 DON'T TANGLE AND TWISTLE"
e|-------------------|
B|-------------------|
G|-------------------|
D|-------------------|
A|--88-88-88-88-8888-|
D|--88-88-88-88-8888-|
    ** ** ** ** ****

"WHEN IT COMES TO THESE CARS I AM THAT NIGGA"
e|-------------------|
B|-------------------|
G|-------------------|
D|-------------------|
A|--77-77-77-77-7777-|
D|--77-77-77-77-7777-|
    ** ** ** ** ****

"??? GUCCI WITH THE MATHCING INTERIOR" (play hella fast again)
e|--------------------------------|
B|--------------------------------|
G|--------------------------------|
D|--------------------------------|
A|--0-000-000-000-000-000-000-000-|
D|--0-000-000-000-000-000-000-000-|
    * *** *** *** *** *** *** ***

"THREE WHEEL DRIVE WITH THE TIRE IN THE MIDDLE"  
e|------------------------------------------------------|
B|------------------------------------------------------|
G|------------------------------------------------------|
D|------------------------------------------------------|
A|--10-101010-101010-101010-101010-101010-101010-101010-|
D|--10-101010-101010-101010-101010-101010-101010-101010-|
    *  * * *   * * *  * * *  * * *  * * *  * * *  * * * 

"IT'S FRESH AND STUNNA, AND WE LIKE BROTHAS"
e|--------------------------------|
B|--------------------------------|
G|--------------------------------|
D|--------------------------------|
A|--8-888-888-888-888-888-888-888-|
D|--8-888-888-888-888-888-888-888-|
    * *** *** *** *** *** *** ***

"WE SHINE LIKE PAINT DADDY THIS OUR SUMMER"
e|--------------------------------|
B|--------------------------------|
G|--------------------------------|
D|--------------------------------|
A|--7-777-777-777-777-777-777-777-|
D|--7-777-777-777-777-777-777-777-|
    * *** *** *** *** *** *** ***

CHORUS

"gator boots, with the pimped out gucci suit... ...cause i'm still fly"
e|--------------------------------------------------|
B|--------------------------------------------------|
G|--------------------------------------------------|
D|--------------------------------------------------|
A|--0~-00-00~--10~-1010-1010~--8~-88-88~--7~-77-77~-|
D|--0~-00-00~--10~-1010-1010~--8~-88-88~--7~-77-77~-| x2

"gotta quarter tank of gas... ...but i'm hood rich, da da da da"
e|---------------------------------------------------------------------|
B|---------------------------------------------------------------------|
G|---------------------------------------------------------------------|
D|---------------------------------------------------------------------|
A|--000--000-000--101010--101010-101010--888--888-888--777--777-777----|
D|--000--000-000--101010--101010-101010--888--888-888--777--777-777----| x2
    ***  *** ***   * * *   * * *  * * *  ***  *** ***  ***  *** *** 


"DID YOU EVER SEE THE CROCODILE SEATS IN THE TRUCK... ...WHERE YOU CAN FIND ME"
e|---------------------------------------------------|
B|---------------------------------------------------|
G|---------------------------------------------------|
D|---------------------------------------------------|
A|--00--00-00--1010--1010-1010--88--88-88--77--77-77-|
D|--00--00-00--1010--1010-1010--88--88-88--77--77-77-|
    **  ** **   * *   * *  * *  **  ** **  **  ** **

"PUSHING THROUGH THE PARKING LOT ON 24'S"
e|--------------|
B|--------------|
G|--------------|
D|--------------|
A|-0-5~---00-00-|
D|-0------00-00-|
   *      ** **

"CADILLAC ESCALADE WITH THE CHROMED OUT NOSE"
e|--------------------|
B|--------------------|
G|--------------------|
D|--------------------|
A|-10--10~--1010-1010-|
D|-10-------1010-1010-|    
    *        * *  * *

"WITH THE NAVIGATION ARROW HEADED STRAIGHT TO YOUR SPOT"
e|-----------------|
B|-----------------|
G|-----------------|
D|-----------------|
A|--8--8~----88-88-|
D|--8--------88-88-|    
    *        ** **

"WHERE YOUR WIFE REALLY LOVE ME CAUSE MY SEX IS SO HOTT"
e|-----------------|
B|-----------------|
G|-----------------|
D|-----------------|
A|--7--7~----77-77-|
D|--7--------77-77-|    
    *        ** **

"PUT THE CADDY UP START THE 3 WHEEL BENZ"
e|------------|
B|------------|
G|------------|
D|------------|
A|-0-0-00-0-0-|
D|-0-0-00-0-0-| 
       **

"HYPER WHITE LIGHTS ULTRA VIOLET LENS"
e|------------|
B|------------|
G|------------|
D|------------|
A|-0-0-00-0-0-|
D|-0-0-00-0-0-| 
       **

"SUMITOMO TIRES AND THEY GOTTA BE RUN FLAT"
e|------------|
B|------------|
G|------------|
D|------------|
A|-0-0-00-0-0-|
D|-0-0-00-0-0-| 
       **

"T.V. WHERE THE HORN GO, BOY CAN YOU TOP THAT?"
e|------------|
B|------------|
G|------------|
D|------------|
A|-0-0-00-0-0-|
D|-0-0-00-0-0-| 
       **

"IM'S SHOW YOU SOME SHIT ROOKIE... ...4 15'S DIDN'T SEE NO WIRES"
e|----------------|
B|----------------|
G|----------------|
D|----------------|
A|-0~----0~----0~-|
D|-0~----0~----0~-|

"THEN I HEARD BOOOM FROM THE AMPLIFIERS"
e|-------|
B|-------|
G|-------|
D|-------|
A|-00-0~-|
D|-00-0~-|
   **

(bride, just palm mute the low D and A string,
timing is too weird to tab, but simple to play)


(right before vocals again)
e|-------------|
B|-------------|
G|-------------|
D|-------------|
A|-00/22/33/55-|
D|-00/22/33/55-|

"LET ME SLIDE IN THE BENZ... ...IN THE CADILLAC TRUCK 24'S WITH 10'S"
e|---------------------------------------------|
B|---------------------------------------------|
G|---------------------------------------------|
D|---------------------------------------------|
A|-7777----5555----3333----2222-2222-2222-2222-|
D|-7777----5555----3333----2222-2222-2222-2222-|

"LOOKIN AT MY GUCCI IT'S ABOUT THAT TIME"
e|--------------------|
B|--------------------|
G|--------------------|
D|--------7/10~--9~---|
A|-7777------------10~|
D|-7777---------------|

"6 BAD BROADS FLYIN IN AT 9"
e|---------------------|
B|---------------------|
G|---------------------|
D|--------7/10~--9~-12~|
A|-5555----------------|
D|-5555----------------|

"NEW SUBERBAN TRUCK WITH THE PORNO SHOWIN"
e|---------------------|
B|---------------------|
G|---------------------|
D|--------7/10~-9~-----|
A|-3333-------------10~|
D|-3333----------------|

"UP AND DOWN AND UP THEY GO AND"
e|---------------------|
B|---------------------|
G|---------------------|
D|---------------------|
A|-2222-2222-2222-2222-|
D|-2222-2222-2222-2222-|

"BODIES ON THE ROADSTER LEXUS YOU KNOW"
e|---------------------|
B|---------------------|
G|---------------------|
D|---------------------|
A|-0000-0000-0000-0000-|
D|-0000-0000-0000-0000-|

"WITH THE HARD TOP BEAMER, MOMMY THAT'S YOUR TRUCK"
e|-------------------------------------|
B|-------------------------------------|
G|-------------------------------------|
D|-------------------------------------|
A|-10101010-10101010-10101010-10101010-|
D|-10101010-10101010-10101010-10101010-|

"I'M COMIN UP THE HOOD BEEN LOVELY"
e|---------------------|
B|---------------------|
G|---------------------|
D|---------------------|
A|-8888-8888-8888-8888-|
D|-8888-8888-8888-8888-|

"NEW SHOES ON THE WHIP AND I WAKE UP THE BUBBLY"
e|---------------------|
B|---------------------|
G|---------------------|
D|---------------------|
A|-7777-7777-7777-7777-|
D|-7777-7777-7777-7777-|

"430 LEX WITH CONVERTABLE TOP"
e|----------------------|
B|----------------------|
G|----------------------|
D|----------------------|
A|-0~-00-0000-0000-0000-|
D|-0~-00-0000-0000-0000-|
      ** **** **** ****    

"THE RIMS KEEP SPINNIN EVERY TIME I STOP"
e|-------------------------------------|
B|-------------------------------------|
G|-------------------------------------|
D|-------------------------------------|
A|-10~-1010-10101010-10101010-10101010-|
D|-10~-1010-10101010-10101010-10101010-|
        * *  * * * *  * * * *  * * * *

"GOTTA SUPERMAN BENZ AND I SCORED IT FROM SHAQ"
e|----------------------|
B|----------------------|
G|----------------------|
D|----------------------|
A|-8~-88-8888-8888-8888-|
D|-8~-88-8888-8888-8888-|
      ** **** **** ****

"WITH A SCHOOL CADDY WITH A *diamond in the back*"
e|------------|
B|------------|
G|------------|
D|------------|
A|-7~-77-7777-|
D|-7~-77-7777-|
      ** ****

CHORUS
"gator boots, with the pimped out gucci suit... ...cause i'm still fly"
e|--------------------------------------------------|
B|--------------------------------------------------|
G|--------------------------------------------------|
D|--------------------------------------------------|
A|--0~-00-00~--10~-1010-1010~--8~-88-88~--7~-77-77~-|
D|--0~-00-00~--10~-1010-1010~--8~-88-88~--7~-77-77~-| x2

"gotta quarter tank of gas... ...but i'm hood rich, da da da da"
e|---------------------------------------------------------------------|
B|---------------------------------------------------------------------|
G|---------------------------------------------------------------------|
D|---------------------------------------------------------------------|
A|--000--000-000--101010--101010-101010--888--888-888--777--777-777----|
D|--000--000-000--101010--101010-101010--888--888-888--777--777-777----| x2
    ***  *** ***   * * *   * * *  * * *  ***  *** ***  ***  *** *** 

end on this
e|----|
B|----|
G|----|
D|----|
A|-0~-|
D|-0~-|

Tap to rate this tab
# A B C D E F G H I J K L M N O P Q R S T U V W X Y Z