Song name
# A B C D E F G H I J K L M N O P Q R S T U V W X Y Z

The Devil Wears Prada - Gimme Half tab

Artist: The Devil Wears Prada
Song: Gimme Half
Album: With Roots Above and Branches Below

Watch this cover if you wanna hear how the tab is loosely played
http://www.youtube.com/watch?v=BJRgzf44Hj8

Tuning Drop B: B F# B E G# C#

Fade in

C#|-------------------|
G#|-------------------|
E |-------------------|
B |-<0----------------|
F#|-<0----------------|
B |-<0----------------|

Repeat the following two bars twice

C#|-------------------------------------|
G#|-------------------------------------|
E |-14/15\15-12/14---7-7--5-5/7-7-------|
B |--x--x--x--x--x---x-x--x-x-x-x-------|
F#|-12/13\12-10/12---5-5--3-3/5-5-------|
B |-------------------------------------|

C#|-------------------------------------|
G#|-------------------------------------|
E |-14/15\15-12/14--10-10--10/9-9-9-----|
B |--x--x--x--x--x---x--x---x-x-x-x-----|
F#|-12/13\12-10/12---8--8---8/7-7-7-----|
B |-------------------------------------|

C#|-------------------------------------|
G#|-------------------------------------|
E |-------------------------------------|
B |--7h8p7-5h7--------------------------|
F#|------------5-5-3-3/5-5--------------|
B |-------------------------------------|

Repeat the following two bars twice

C#|-------------------------------------|
G#|-------------------------------------|
E |-------------------------------------|
B |--7h8p7-5h7--------------------------|
F#|------------5-5--3-3/5-5-------------|
B |-------------------------------------|

C#|-------------------------------------|
G#|-------------------------------------|
E |-------------------------------------|
B |--7h8p7-5h7--------------------------|
F#|------------8-8--8\7-7---------------|
B |-------------------------------------|

C#|-------------------------------------|
G#|-------------------------------------|
E |-14-----12----14----15-----17--------|
B |--x-x12--x-x2--x-x2--x-x12--x-x4-----|
F#|-12-----10----12----13-----15--------|
B |-------------------------------------|

C#|-------------------------------------|
G#|-------------------------------------|
E |-14-----12----14----15---------------|
B |--x-x12--x-x2--x-x2--x-x16-----------|
F#|-12-----10----12----13---------------|
B |-------------------------------------|

Repeat the following two bars twice

C#|-------------------------------------|
G#|-------------------------------------|
E |---------14-14---------15-15-15-15---|
B |----------x--x----------x--x--x--x---|
F#|-0-0-0-0-12-12-0-0-0-0-13-13-13-13---|
B |-0-0-0-0-------0-0-0-0---------------|
    * * * *       * * * *
 
C#|-------------------------------------|
G#|-------------------------------------|
E |---------14-14---------17-17-17-17---|
B |----------x--x----------x--x--x--x---|
F#|-0-0-0-0-12-12-0-0-0-0-15-15-15-15---|
B |-0-0-0-0-------0-0-0-0---------------|
    * * * *       * * * *

C#|-------------------|
G#|-------------------|
E |-------------------|
B |--7h8p7-5h7-0~-----|
F#|------------0~-----|
B |------------0~-----|

Iím gonna put both guitars here, choose whichever
Each set of two bars is repeated 4 times
THE SECOND TIME AROUND DONíT PAL MUTE THE 8íS AND 10íS (on the 1st guitar)
AND THE 3íS AND 5íS (on the 2nd guitar) AND DO NOT PLAY THE 7íS AT THE END (for both)

Guitar 1

C#|-----------------------------------------|
G#|-----------------------------------------|
E |-----------------------------------------|
B |-----------------------------------------|
F#|-5------------------8---7---5--3---3h5p3-|
B |---0000000000000000---0---0---0--0-------| 
      ****************   *   *   *  *

C#|-------------------------------------|
G#|-------------------------------------|
E |-------------------------------------|
B |-------------------------------------|
F#|----------------------------/8-7-----|
B |-8-888888888888-10-10101010----------|  
      ************     * * * *

Guitar 2

C#|--------------------------------------------|
G#|--------------------------------------------|
E |--------------------------------------------|
B |--------------------------------------------|
F#|--------------------------------------------|
B |-0-0000000000000000-12-0-10-0-8-0-7-0-7h8p7-|
      ****************    *    *   *   *

C#|-------------------------------------|
G#|-------------------------------------|
E |-------------------------------------|
B |-------------------------------------|
F#|-------------------------------------|
B |-3-333333333333-5-5555-/8-7----------|
      ************   ****

Repeat the following bar twice

C#|-------------------------------------|
G#|-------------------------------------|
E |-------------------------------------|
B |-0--0--3--5--8--7--------------------|
F#|-0--0--3--5--8--7--------------------|
B |-0--0--3--5--8--7--------------------|

C#|-------------------------------------------------------|
G#|-------------------------------------------------------|
E |-------------------------------------------------------|
B |-0----------------------------------------------8-7-5--|
F#|-0-0000000---0---00000-000-000-000-000-000-000--8-7-5--|
B |-0-0000000---0---00000-000-000-000-000-000-000--8-7-5--|
      *******   *   ***** *** *** *** *** *** ***

C#|--------------------------------------------------------|
G#|--------------------------------------------------------|
E |--------------------------------------------------------|
B |-0----------------------------------------------8-7-10--|
F#|-0-0000000---0---00000-000-000-000-000-000-000--8-7-10--|
B |-0-0000000---0---00000-000-000-000-000-000-000--8-7-10--|
      *******   *   ***** *** *** *** *** *** ***

Repeat the following two bars twice

C#|-------------------------------------|
G#|-------------------------------------|
E |-14/15\15-12/14---7-7--5-5/7-7-------|
B |--x--x--x--x--x---x-x--x-x-x-x-------|
F#|-12/13\12-10/12---5-5--3-3/5-5-------|
B |-------------------------------------|

C#|-------------------------------------|
G#|-------------------------------------|
E |-14/15\15-12/14--10-10--10/9-9-9-----|
B |--x--x--x--x--x---x--x---x-x-x-x-----|
F#|-12/13\12-10/12---8--8---8/7-7-7-----|
B |-------------------------------------|

C#|------------------|
G#|------------------|
E |------------------|
B |-8~--10~----------|
F#|-8~--10~--0-------|
B |-8~--10~--0-------|
             *

C#|-------------------------------------|
G#|-------------------------------------|
E |-------------------------------------|
B |-----8----------------12--------10---|
F#|---5---5-----------10----10---8----8-|
B |-0-------0-0000000----------0--------|
    *       * *******          *

C#|--------------------------------------|
G#|--------------------------------------|
E |--------------------------------------|
B |-----8--------------------------7h8p7-|
F#|---5---5------------------7h8p7-------|
B |-0-------0-0000000-555555-------------|
    *       * ******* ******         

C#|----------------------------------------|
G#|----------------------------------------|
E |----------------------------------------|
B |-----12----------------15---------14----|
F#|---8----8-----------13----13---12----12-|
B |-0--------0-0000000----------0----------|
    *        * *******          *

C#|--------------------------------------|
G#|--------------------------------------|
E |--------------------------------5h7p5-|
B |-----12-------------------5h7p5-------|
F#|---8----8-----------------------------|
B |-0--------0-0000000-555555------------|
    *        * ******* ******

Repeat the following two bars twice

C#|--------------------------------------------------------------|
G#|--------------------------------------------------------------|
E |--------------------------------------------------------------|
B |--------------------------------------------------------------|
F#|-1212121212121212-1010101010101010-1313131313131313-1212-1010-|
B |--------------------------------------------------------------|

C#|--------------------------------------------------|
G#|--------------------------------------------------|
E |--------------------------------------------------|
B |--------------------------------------------------|
F#|-1212121212121212-10101010-8888-77777777-88888888-|
B |--------------------------------------------------|

Repeat the following three bars twice

C#|-------------------------------------|
G#|-------------------------------------|
E |-------------------------------------|
B |-------------------------------------|
F#|-0-000-0-000-000-12121212-10101010---|
B |-0-000-0-000-000---------------------|
    * *** * *** ***

C#|-----------------------------------------------------|
G#|-----------------------------------------------------|
E |-----------------------------------------------------|
B |-----------------------------------------------------|
F#|-0-000-0-000-000-12121212-10101010-13131313-12121212-|
B |-0-000-0-000-000-------------------------------------|
    * *** * *** ***

C#|-------------------------------------------------------------------------|
G#|-------------------------------------------------------------------------|
E |-------------------------------------------------------------------------|
B |-------------------------------------------------------------------------|
F#|-000-00000-0-000---00-0-0-000000000---00-0-0-12121212-10101010-7777-8888-|
B |-000-00000-0-000---00-0-0-000000000---00-0-0-----------------------------|
    *** ***** * ***   ** * * *********   ** * * 

C#|----------------------------------|
G#|----------------------------------|
E |----------------------------------|
B |-0--0-----------------------------|
F#|-0--0---0-0-0-0-0-0-0-0-0-12\-----|
B |-0--0---0-0-0-0-0-0-0-0-0-12\-----|
           * * * * * * * * *

Repeat the following two bars twice (use delay)

C#|--------------------------------------|
G#|--------------------------------------|
E |--14h15p14-12h14p12-------------------|
B |--------------------12-12-10-10/12-12-|
F#|--------------------------------------|
B |--------------------------------------|

C#|--------------------------------------|
G#|--------------------------------------|
E |--14h15p14-12h14p12-------------------|
B |--------------------15-15-15\14-14-14-|
F#|--------------------------------------|
B |--------------------------------------|

Repeat the following two bars twice (use delay)

C#|--------------------------------------|
G#|--15h18p15-13h15p13-------------------|
E |--------------------14-14-12-12/14-14-|
B |--------------------------------------|
F#|--------------------------------------|
B |--------------------------------------|

C#|--------------------------------------|
G#|--15h18p15-13h15p13-------------------|
E |--------------------15-15-15\14-14-14-|
B |--------------------------------------|
F#|--------------------------------------|
B |--------------------------------------|

The rest of the song is just both guitars playing this so you can alternate or play either one 

Thanks and donít forget to comment and rate



Tap to rate this tab
# A B C D E F G H I J K L M N O P Q R S T U V W X Y Z