Song name
# A B C D E F G H I J K L M N O P Q R S T U V W X Y Z

The Devil Wears Prada - Ben Has A Kid tab

Artist: The Devil Wears Prada
Song: Ben Has a Kid
Album: With Roots Above and Branches Below

Tuning Drop D: 

D A D G B E

i tabbed this song cause i think this is the way it should be played.
and also cause there weren't much tabs for this song.
some of the strummings you"ll have to figure out yourself..its my first tab.

hydrolux_boy@hotmail.com



0:00-0:07

e|--0-0-0-0-----0-0-0-0---------|
B|--6-6-6-6-----6-6-6-6---------|
G|--9-9-9-9-----9-9-9-9---------|
D|--0-0-0-0-----0-0-0-0---------| (x2)
A|----------0-0---------0-------|
D|----------0-0---------0-------|
            * *         *


|------0------|
|------6------|
|------9------|
|------0------|
|-------------|
|-------------|


0:09-0:25

e|------0---------0---0-----------------------------------|
b|------6---------6---6-----------------------------------|
g|------9---------9---9-----------------------------------|
d|------0---------0---0-----------------------------------|  (x2)
a|--------------------------------------------------------|
d|---0-------000---------00-0-000-0--8-7-0000000000000----|
     *       ***         ** * *** *      *************


0:26-0:59
e|--------------|
b|--------------|
g|--------------|
d|--------------|
a|--------------|
d|--0-8-7-5-3-2-|



e|----------------------------------------------------------------------|
b|----------------------------------------------------------------------|
g|----------------------------------------------------------------------|
d|----------------------------------------------------------------------|
a|---------------------2h3----------7h8----------7h8p7------------7h8p7-|
d|--000000000-333333333---888888888-----777777777------55555555555------|



e|-------------|                |------|                              
b|-------------|                |------|
g|-------------|                |------|
d|-------------| 4 times maybe? |------| (the lead guitar does this)
a|-------------|                |------|
d|--000-0-000-0|                |--3b--|

|------0------|                 |-----|
|------6------|                 |-----|
|------9------| (rhythm guitar) |-----| then the other guitar does this
|------0------|                 |--0--|
|-------------|                 |--0--|
|-------------|                 |--0--|



1:00-1:32

e|----------8----------------10---10-|
B|----6---6-----6-----6----6----6----|
G|--7--7-7----7--7--9---9-9---9------| Lead guitar
D|-----------------------------------|
A|-----------------------------------|
D|-----------------------------------|
    *  * *    *  *  *   * *   *

e|----------------15-------------------------12h13-12\10-----10|
B|-----13------13------13--------13------13--------------------|
G|--14----14-14------14---14--14---14-14-----------------------|
D|-------------------------------------------------------------| lead guitar
A|-------------------------------------------------------------|
D|-------------------------------------------------------------|
    *     *  *       *    *   *    *   *  

e|-----------|                |-------|
b|-----------|                |-------|
g|-----------|                |-------|
d|-7--8--0---| rhythm guitar  |-------| both (figure out the pattern)
a|-7--8--0---|                |-------|
d|-7--8--0---|                |---0---|
                                  *

1:32-1:59

one of the guitar does an open D........and the other...

e|------|                            |-------------|   
b|------|                            |-------------|
g|------|                            |-------------|
d|------|                            |--------12---|
a|------|                            |--------12---|
d|---0--|                            |-000--0/12---|  
     *


 2:00-2:18

e|------------------------------|
B|------------------------------|
G|------------------------------| (x2)
D|------------------------------|
A|---------------------------1--|
D|-00000000000000----0-5-4-3-2--|
   **************

2:20-2:40
     
e|-----------------------------------------------------|
B|-----------------------------------------------------|
G|-----------------------------------------------------|
D|-----------------------------------------------------|
A|------------------------1----------------------------|
D|-0000-0000-00-0000-0000-2-0000-0000-00-0000-0000-00--|
   **** **** ** **** ****   **** **** ** **** **** **

chorus 2:41-3:14

e|----------8----------------10---10-|
B|----6---6-----6-----6----6----6----|
G|--7--7-7----7--7--9---9-9---9------| Lead guitar
D|-----------------------------------|
A|-----------------------------------|
D|-----------------------------------|
    *  * *    *  *  *   * *   *

e|----------------15-------------------------12h13-12\10-----10|
B|-----13------13------13--------13------13--------------------|
G|--14----14-14------14---14--14---14-14-----------------------|
D|-------------------------------------------------------------| lead guitar
A|-------------------------------------------------------------|
D|-------------------------------------------------------------|
    *     *  *       *    *   *    *   *  

e|-----------|                |-------|
b|-----------|                |-------|
g|-----------|                |-------|
d|-7--8--0---| rhythm guitar  |-------| both (figure out the pattern)
a|-7--8--0---|                |-------|
d|-7--8--0---|                |---0---|
                                  *


3:15-3:28

e|--10--12--8--10--|                |-------|
B|-----------------|                |-------|
G|-----------------| Lead guitar    |-------|
D|-----------------|                |---0---|
A|-----------------|                |---0---|
D|-----------------|                |---0---|

2:29-END

e|---------------------------------|
B|---------------------------------|
G|--------10------12---------------| 
D|--------X-------X----------------| play this till the song ends
A|--------8-------10---------------|
D|-00000-----000-----000--000-000--| (one of the guitar does this...)
    

e|-------------------------------|
B|-------------------------------|
G|-------7------10---------------| (and the other one does this)
D|-------x------x----------------|
A|-------5------8----------------| 
D|-00000----000----000--000-000--|


Lyrics:

I MEAN THIS
I'M NOT SURE IF YOU
COULD SAY THE SAME
WEEK AFTER WEEK AFTER WEEK

IDOLATRY IS WASTED REVERENCE
IDOLATRY IS THE YELLOW ON YOUR TEETH
GASP FOR THE TRUTH YOU ONCE LIVED
BEYOND THIS WORLD

Beyond this world
Is what is always breathing
Beyond this world
Is worth dying for (2x)
DYING FOR

I REMEMBER
(WHAT YOU USED TO CLAIM (2x))
YOU CANT BURY
CONVICTION WITH ANYTHING

OUR MESSAGE WILL GROW (2x)
NO MATTER
THE MISTAKES
MADE WITH CONSTRUCTION

Beyond this world
Is what is always breathing
Beyond this world
Is worth dying for (2x)

GASP FOR THE TRUTH
(YOU ONCE LIVED (2x))
I PRAY THAT STOLEN GLIMPSES
DO NOT SUBTRACT FROM WHAT WE'VE BEEN
BUILDING KEEP STRIDE
PERSIST IN OUR MARCH

KEEP STRIDE
PERSIST IN OUR MARCH

enjoy :)
Tap to rate this tab
# A B C D E F G H I J K L M N O P Q R S T U V W X Y Z