Song name
# A B C D E F G H I J K L M N O P Q R S T U V W X Y Z

The Devil Wears Prada - You Cant Spell Crap Without C tab

Hmm this tab was really easy but i dont have to lead guitar tab yet but its coming soon 
what youll need ive tested it and everything please rate and enjoy the tab! Oh and 
to the alternate picking pattern my count may be off slightly

\slide down
/slide up
*palm mute


e|-------------------------------------------------------------------------|
B|-------------------------------------------------------------------------|
G|-------------------------------------------------------------------------|
D|-------------------------------------------------------------------------|
A|00-00-0-88-88-8-55-55-/10------------------------------------------------|
D|00-00-0-88-88-8-55-55-/10------------------------------------------------|x2

e|-----||------------------------------------------------------------------|
B|-----||------------------------------------------------------------------|
G|-----||------------------------------------------------------------------|
D|-----||------------------------------------------------------------------|
A|-----||0-00-0-8-8-8-8----------------------------------------------------|
D|12-\1||0-00-0------------------------------------------------------------|
         * ** *                                                             x2

e|-------------------------------------------------------------------------|
B|-------------------------------------------------------------------------|
G|-------------------------------------------------------------------------|
D|-------------------------------------------------------------------------|
A|00-00-0-88-88-8-55-55-/10------------------------------------------------|
D|00-00-0-88-88-8-55-55-/10------------------------------------------------|

For this riff they sustain alittle longer

e|-------------------------------------------------------------------------|
B|-------------------------------------------------------------------------|
G|-------------------------------------------------------------------------|
D|-------------------------------------------------------------------------|
A|0-0-0-8-5/10-------------------------------------------------------------|
D|0-0-0-8-5/10-------------------------------------------------------------|

riff after the lead does the clean picking

e|--------------------------------------------------------------------------|
B|--------------------------------------------------------------------------|
G|--------------------------------------------------------------------------|
D|--------------------------------------------------------------------------|
A|0----------0-----------0----------0----------00000------------------------|
D|0-(sustain)0-(sustain)-0(sustain)-0(sustain)-00000------------------------|
                                                   *

e|--------------------------------------------------------------------------|
B|--------------------------------------------------------------------------|
G|--------------------------------------------------------------------------|
D|--------------------------------------------------------------------------|
A|0-0000-0-0000-0-0000-13-13-13-13-13-13-13---------------------------------|
D|0-0000-0-0000-0-0000------------------------------------------------------|
    ****   ****   ****                                                      x2

e|--------------------------------------------------------------------------|
B|--------------------------------------------------------------------------|
G|--------------------------------------------------------------------------|
D|--------------------------------------------------------------------------|
A|0-0-0-0-0-13-13-13-13-13-13-----------------------------------------------|
D|0-0-0-0-0-----------------------------------------------------------------|

e|--------------------------------------------------------------------------|
B|--------------------------------------------------------------------------|
G|--------------------------------------------------------------------------|
D|--------------------------------------------------------------------------|
A|0-0-0-0-0-----------------------------------------------------------------|
D|0-0-0-0-0-----------------------------------------------------------------|
        *
Tap to rate this tab
 
# A B C D E F G H I J K L M N O P Q R S T U V W X Y Z