Song name
# A B C D E F G H I J K L M N O P Q R S T U V W X Y Z

The Devil Wears Prada - You Cant Spell Crap Without C tab

My bad ive left out a couple of parts in this song...heres the brand new tab.
Please rate this tab! heres what youll need:

\slide down
*palm mute
/slide up


e|--------------------------------------------------------------------------|
B|--------------------------------------------------------------------------|
G|--------------------------------------------------------------------------|
D|--------------------------------------------------------------------------|
A|0-0-0-0-0-0-8-8-8-8-5-5-5-5/10--------------------------------------------|
D|0-0-0-0-0-0-8-8-8-8-5-5-5-5/10--------------------------------------------|x2

e|----------------||--------------------------------------------------------|
B|----------------||--------------------------------------------------------|
G|----------------||--------------------------------------------------------|
D|----------------||--------------------------------------------------------|
A|0-0-0-0-0-0-12/1||0(sustain)-00-0(sustain)-8888---------------------------|
D|0-0-0-0-0-0-12/1||0(sustain)-00-0(sustain)--------------------------------|            
                  **

e|--------------------------------------------------------------------------|
B|--------------------------------------------------------------------------|
G|--------------------------------------------------------------------------|
D|--------------------------------------------------------------------------|
A|0(sustain)-00-0(sustain)888-7/1-------------------------------------------|
D|0(sustain)-00-0(sustain)--------------------------------------------------|
             **

e|--------------------------------------------------------------------------|
B|--------------------------------------------------------------------------|
G|--------------------------------------------------------------------------|
D|--------------------------------------------------------------------------|
A|0(sustain)-00-0(sustain)8888----------------------------------------------|
D|0(sustain)-00-0(sustain)--------------------------------------------------|
  *          ** *                                                         x2


e|--------------------------------------------------------------------------|
B|--------------------------------------------------------------------------|
G|--------------------------------------------------------------------------|
D|--------------------------------------------------------------------------|
A|0-0-0-0-0-0-8-8-8-8-8-8-5-5-5-5-5/10--------------------------------------|
D|0-0-0-0-0-0-8-8-8-8-8-8-5-5-5-5-5/10--------------------------------------|

e|--------------------------------------------------------------------------|
B|--------------------------------------------------------------------------|
G|--------------------------------------------------------------------------|
D|--------------------------------------------------------------------------|
A|0-0-0-8-8-8-8-8-8-5-5-5-5/10----------------------------------------------|
D|0-0-0-8-8-8-8-8-8-5-5-5-5/10----------------------------------------------|

e|--------------------------------------------------------------------------|
B|--------------------------------------------------------------------------|
G|--------------------------------------------------------------------------|
D|--------------------------------------------------------------------------|
A|0(sustain)-0(sustain)-0-0-0-1-1-1-----------------------------------------|
D|0(sustain)-0(sustain)-0-0-0-1-1-1-----------------------------------------|
                        * * * * * *
My counts off slightly off for only this alternate pick riff below

e|--------------------------------------------------------------------------|
B|--------------------------------------------------------------------------|
G|--------------------------------------------------------------------------|
D|--------------------------------------------------------------------------|
A|0--------------------0--------------------0----------------0------111-222-|
D|0-0000-0000-0000-0-0-0-0000-0000-0000-0-0-0-0000-0000-0000-0-0000-111-222-|
    **** **** **** * *   **** **** **** * *   **** **** ****   **** *** ***

e|--------------------------------------------------------------------------|
B|--------------------------------------------------------------------------|
G|--------------------------------------------------------------------------|
D|--------------------------------------------------------------------------|
A|0------0(sustain)-0-----888-----------------------------------------------|
D|0-0000-0(sustain)-0-0000--------------------------------------------------|
    **** *            ****                                                x2

e|-------------------||-----------------------------------------------------|
B|-------------------||-----------------------------------------------------|
G|-------------------||-----------------------------------------------------|
D|-------------------||-----------------------------------------------------|
A|0-0-0-0-0-8-8-8-8-8||0-0-0-0-8-8-8-8--------------------------------------|
D|0-0-0-0-0-8-8-8-8-8||0-0-0-0-8-8-8-8--------------------------------------|x2

Riff after the clean picking

e|--------------------------------------------------------------------------|
B|--------------------------------------------------------------------------|
G|--------------------------------------------------------------------------|
D|--------------------------------------------------------------------------|
A|0-0-0-0-0000-0(sustain)---------------------------------------------------|
D|0-0-0-0-0000-0(sustain)---------------------------------------------------|
          **** *

e|--------------------------------------------------------------------------|
B|--------------------------------------------------------------------------|
G|--------------------------------------------------------------------------|
D|--------------------------------------------------------------------------|
A|0------0------0-00-0-000-0-0000-12-12-12-12-12-12-12-12-------------------|
D|0-0000-0-0000-0-00-0-000-0-0000-------------------------------------------|x2

e|--------------------------------------------------------------------------|
B|--------------------------------------------------------------------------|
G|--------------------------------------------------------------------------|
D|--------------------------------------------------------------------------|
A|0-0-0-0-0-12-12-12-12-12-12-12-12-0-0-0-0-0-------------------------------|
D|0-0-0-0-0-------------------------0-0-0-0-0-------------------------------|
Tap to rate this tab
# A B C D E F G H I J K L M N O P Q R S T U V W X Y Z