Song name
# A B C D E F G H I J K L M N O P Q R S T U V W X Y Z

The Devil Wears Prada - Goats On A Boat tab

GOATS ON A BOAT- The Devil Wears Prada
Tabbed by: minkar_man72
Email: ...

Tuning: drop d
this tab is in drop d tuning.

intro/verse 1 Riff
e|---------------------------------------------------------------------------|
B|----5-5-5-----5-5-5----5-5-5----------55555----55555----55555--------------|
G|----8-8-8-----8-8-8----8-8-8----------88888----88888----88888--------------|
D|-0--0-0-00----0-0-0-0--0-0-0-------0--00000-0--00000-0--00000--------------|
A|-0-------0----------0--------2--1--0--------0--------0--------0--12/-------|
E|-0-------0----------0--------3--2--0--------0--------0--------0--12/-------|
                               .  .                             
                                                    
repeat this line, but the second time end with this v
                                                    v
e|----------------------------------|-----------------------------------------|
B|----55555----55555----55555-------|-----------------------------------------|
G|----88888----88888----88888-------|-----------------------------------------|
D|-0--00000-0--00000-0--00000-------|-----------------------------------------|
A|-0--------0--------0--------2--1--|-2--1--2--1--0---------------------------|
E|-0--------0--------0--------3--2--|-3--2--3--2--0---------------------------|
                              .  .    .  .  .  .  .

"I return your glare!!"
e|---------------------------------------------------------------------------|
B|---------------------------------------------------------------------------|
G|---------------------------------------------------------------------------|
D|---------------------------------------------------------------------------|
A|-0---------------------5h6-5~-0--------------------------------------------|
E|-0-000-000-8h0-000-000--------0-000-000-8h0-000-000-2h3-2~-----------------|
     ... ...     ... ...          ... ...     ... ...
play that twice then...


play this 2x also
e|---------------------------------------------------------------------------|
B|---------------------------------------------------------------------------|
G|---------------------------------------------------------------------------|
D|-----------------------------------------------------------THEN-0----------|
A|-0---------------------5h6-5~-0---------------------------------0----------|
E|-0-0-0-0-0-8h0-0-0-0-0--------0-0-0-0-0-8h0-0-0-0-0-2h3-2~------0----------|
     . . . .     . . . .          . . . .     . . . . .

cut that last note vary short. then theres the tecnoy part...

then riff 4
2x
e|---------------------------------------------------------------------------|
B|---------------------------------------------------------------------------|
G|---------------------------------------------------------------------------|
D|---3h0-5h0-7h0-8h0-7h0-5h0-3h0--(play2x)-----------------------------------|
A|-0-------------------------------------------------------------------------|
E|-0-------------------------------------------------------------------------|

e|---------------------------------------------------------------------------|
B|---------------------------------------------------------------------------|
G|---------------------------------------------------------------------------|
D|---3h0-5h0-7h0-8h0-7h0-5h0-3h0---3h0-5h0-7h0-7h8-5h7-3---------------------|
A|-8-----------------------------8-------------------------------------------|
E|-8-----------------------------8-------------------------------------------|



Riff 5 2x
e|-----------------------------------------------------------------------------------|
B|-----------------------------------------------------------------------------------|
G|-----------------------------------------------------------------------------------|
D|-----------3h0---------10h0-11h0-----------3h0-888888777555-8888888888888888-------|
A|-0-------------------------------0--------------------------8888888888888888-------|
E|-0-000-000-----000-000-----------0-000-000------------------8888888888888888-------|

e|---------------------------------------------------------------------------|
B|---------------------------------------------------------------------------|
G|---------------------------------------------------------------------------|
D|-7777777777777777----------------------------------------------------------|
A|-7777777777777777----------------------------------------------------------|
E|-7777777777777777----------------------------------------------------------|

Riff 6 2x
im not really sure about thr next part so i just tabed the mutes
e|---------------------------------------------------------------------------|
B|---------------------------------------------------------------------------|
G|---------------------------------------------------------------------------|
D|---------------------------------------------------------------------------|
A|-000000-00-00--------00000-------------------------------------------------|
E|-000000-00-00--------00000-------------------------------------------------|
   ...... .. ..        .....

Riff 7 2x
the singing part(10=ten)
e|----------------------------------------------------------------------------------|
B|----------------------------------------------------------------------------------|
G|----------------------------------------------------------------------------------|
D|-88888888888888881010101010101010101010101010101000000000000000000000000000000000-|
A|-88888888888888881010101010101010101010101010101000000000000000000000000000000000-|
E|-88888888888888881010101010101010101010101010101000000000000000000000000000000000-|


the same as the last part but dut you do this with the open notes...
                                         then end it all with this v
                                                                   v
e|----------------------------------------------------|-----------------------|
B|----------------------------------------------------|-----------------------|
G|----------------------------------------------------|-----------------------|
D|----------------------------------------------------|-----------------------|
A|-10-0-0--10-0-0--000-000--10-0-0--10-0-0--000-000---|-10-00-0-00-0----------|
E|-10-0-0--10-0-0--000-000--10-0-0--10-0-0--000-000---|-10-00-0-00-0----------|
                   ... ...                  ... ...        ..   .. 
you can listen to the song to hear the pattern

Riff 8
e|---------------------------------------------------------------------------|
B|---------------------------------------------------------------------------|
G|---------------------------------------------------------------------------|
D|---------------------------------------------------------------------------|
A|-8--8--8--7--7--7-0--00000-000-8--8--8--7--7--7--8--8--8-0-----------------|
E|---0--0-----0--0--0--00000-000---0--0-----0--0-----0--0--0-----------------|
     .  .     .  .  .  ..... ...   .  .     .  .     .  .  .
e|---------------------------------------------------------------------------|
B|---------------------------------------------------------------------------|
G|---------------------------------------------------------------------------|
D|---------------------------------------------------------------------------|
A|-8--8--8--7--7--7-0--00000-000-8--8--8--7--7--7-0--00000-000---------------|
E|---0--0-----0--0--0--00000-000---0--0-----0--0--0--00000-000---------------|
     .  .     .  .  .  ..... ...   .  .     .  .  .  ..... ...
e|---------------------------------------------------------------------------|
B|---------------------------------------------------------------------------|
G|---------------------------------------------------------------------------|
D|------------------------------------------------------0--------------------|
A|-8--8--8--7--7--7--8--8--8--7--7--7--8--8--8--7--7--7-0----0---------------|
E|---0--0-----0--0-----0--0-----0--0-----0--0-----0--0--0----0---------------|
     .  .     .  .     .  .     .  .     .  .     .  .       .

breakdown/outro 
e|------------------------------------------------------------------------------------|
B|------------------------------------------------------------------------------------|
G|------------------------------------------------------------------------------------|
D|------------------------------------------------------------------------------------|
A|-0000--0000-0000--0000--0000-0000--0-0-0000--0000-0000--0000--0000-0000-------------|
E|-0000--0000-0000--0000--0000-0000--0-0-0000--0000-0000--0000--0000-0000-------------|
   ....  .... ....  ....  .... ....  . . ....  .... ....  ....  .... ....

Riff 9
e|---------------------------------------------------------------------------------|
B|---------------------------------------------------------------------------------|
G|---------------------------------------------------------------------------------|
D|----------0-----------0-------------0--------------------------------------------|
A|-88887777-0----888888-0----88888888-0----888888101010101010101077777777----------|
E|----------0-----------0-------------0--------------------------------------------|


Riff 10
e|--------------------------------------|---------------------------------------|
B|--------------------------------------|---------------------------------------|
G|--------------------------------------|---------------------------------------|
D|------------------------------------4x|-0----------0------------0-------------|
A|---10-8--8-7--7h8--10-8--7h8-7h8-7h8--|-0---888888-0---88888888-0--8t-10t-7t--|
E|-00----00---00---00----00---0---0-----|-0----------0------------0-------------|
   ..    ..   ..   ..    ..   .   .                   

e|-------------------------------------------------------------------------------|
B|-------------------------------------------------------------------------------|
G|-------------------------------------------------------------------------------|
D|-------------------------------------------------------------------------------|
A|-8888888888888888777777777777777788888888888888887777777777777777-0-0000-0000--|
E|------------------------------------------------------------------0-0000-0000--|


************************************

| /   slide up
| \   slide down
| h   hammer-on
| p   pull-off
| ~   vibrato
| *   harmonic
| .   palm mute
| b   Bend
Tap to rate this tab
 
# A B C D E F G H I J K L M N O P Q R S T U V W X Y Z