The Devil Wears Prada - Revive tab

-------------------------------------------------------------------------------
			     REVIVE - The Devil Wears Prada
-------------------------------------------------------------------------------
Tabbed by Rsxkilla
Email: gpknights19@hotmail.com

Tuning: Drop B

some of the breakdowns are very hard to tab out in correct timing but
all notes should be correct otherwise
	

my video: http://www.youtube.com/watch?v=p0QW5j6rLhk


	0:10-20 (rhythm of open notes may be off slightly)
C#|-----------------------------------------------------------------|
G#|-----------------------------------------------------------------|
 E|-----------------------------------------------------------------|
 B|-----------------------------------------------------------------|
F#|------------------------------------------------1-----2----------|
 B|--2p0-0-2p0-0-2p0-2p0-2p0-2p0-2p0-0-2p0-0-2p0-----3-1---4-2------|

C#|-----------------------------------------------------------------|
G#|-----------------------------------------------------------------|
 E|-----------------------------------------------------------------|
 B|-----------------------------------------------------------------|
F#|------------------------------------------------1-----2----------|
 B|--2p0-0-2p0-0-2p0-2p0-2p0-2p0-2p0-0-2p0-0-2p0-----3-1---4-3*-----|

	0:21-36 (breakdown may be slightly off)
C#|---------------------------------------------------------------------|
G#|---------------------------------------------------------------------|
 E|---------------------------------------------------------------------|
 B|--0----------0-0--------------0-0------0----------0-0----------------|
F#|--0--0-0-0-0-0-0-0-0--0-0-0-0-0-0-0-0--0--0-0-0-0-0-0-1-----2--------|
 B|--0--0-0-0-0-0-0-0-0--0-0-0-0-0-0-0-0--0--0-0-0-0-0-0---3-1---4-2----|

C#|-----------------------------------------------------------------------------|
G#|-----------------------------------------------------------------------------|
 E|-----------------------------------------------------------------------------|
 B|--0----------0-0--------------0-0------0----------0-0------------------------|
F#|--0--0-0-0-0-0-0-0-0--0-0-0-0-0-0-0-0--0--0-0-0-0-0-0-1-----2-----1-----2----|
 B|--0--0-0-0-0-0-0-0-0--0-0-0-0-0-0-0-0--0--0-0-0-0-0-0---3-1---4-2---3-1---4-2|

C#|----------------------------------|
G#|----------------------------------|
 E|--7-------------------------------|
 B|--x--------\\\\\------------------|
F#|--5----0-0-\\\\\------------------|
 B|-------0-0-\\\\\------------------|


	0:37-48
C#|-----------------------------------------------------------------|
G#|-----------------------------------------------------------------|
 E|-----------------------------------------------------------------|
 B|------------------7---5---------------------------7---5---8---7--|
F#|--5-----7-8---5-----------7-7-7---5-----7-8---5------------------|
 B|----0-0-----0---0---0---0-----------0-0-----0---0---0---0---0----|(x2)

	0:49-1:06
C#|-----------------------------------|
G#|-----------------------------------|
 E|-----------------------------------|
 B|--0--0-0-----------0--0-0----------|
F#|--0--0-0--0-0-0-0--0--0-0--0-0-0-0-|
 B|--0--0-0--0-0-0-0--0--0-0--0-0-0-0-|(x2)

C#|----------------------------------------------|
G#|----------------------------------------------|
 E|----------------------------------------------|
 B|--12/15-12----12/15-12-----14-15-14-14-15-14--|
F#|-----------15----------15---------------------|
 B|----------------------------------------------|

	1:07-30
C#|--------------------------------------------------------------------|
G#|--------------------------------------------------------------------|
 E|--------------------------------------------------------------------|
 B|--------------------------------------------------------------------|
F#|--------------------------------------------------------------------|
 B|---0t---8t--5t---7t---8t---3t--5t---0t---8t--5t---7t---8t---3t------|(x2)
	
	1:31-:41
C#|-------------------------------------------------------------------|
G#|-------------------------------------------------------------------|
 E|--9-----7---6------9-----7---6-------------------------------------|
 B|--X-----X---X---0--X-----X---X-------------------------------------|
F#|--7-----5---4~--0--7-----5---4----------4-4-4-4--------------------|
 B|----0-0---0-----0----0-0---0---8--8-8-8----------------------------|


C#|-------------------------------------------------------------------|
G#|-------------------------------------------------------------------|
 E|--9-----7---6------9-----7---6-------------------------------------|
 B|--X-----X---X---0--X-----X---X-------------------------------------|
F#|--7-----5---4~--0--7-----5---4-----------0-------------------------|
 B|----0-0---0-----0----0-0---0---8--8-8-8--0-------------------------|


	1:42-1:54
C#|----------------------------------------------------------------------|
G#|----------------------------------------------------------------------|
 E|----------------------------------------------------------------------|
 B|--0-------0-0~--------------------------------------------------------|
F#|--0--0-0--0-0~----0-0---------0-0----------0-0------------------------|
 B|--0--0-0--0-0~--8-0-0-8-0~--4-0-0-4-0~--1--0-0--1-0--0--0--0--0-0-0-0-|


	1:55-2:21 (REALLY WEIRD BREAKDOWN, TABBED RHYTHM MAY BE SLIGHTLY OFF)
C#|-------------------------------------------------------------------|
G#|-------------------------------------------------------------------|
 E|-------------------------------------------------------------------|
 B|----0-0-0-0-----------------0------------------0--0-0-----------3*-|
F#|----0-0-0-0--0-0--0-0--0-0--0--0-0--0-0-0-0-0--0--0-0--------------|
 B|----0-0-0-0--0-0--0-0--0-0--0--0-0--0-0-0-0-0--0--0-0-0-0-0-0-0----|

C#|-------------------------------------------------------------------|
G#|-------------------------------------------------------------------|
 E|-------------------------------------------------------------------|
 B|----0-0-0-0-----------------0------------------0--0-0--------------|
F#|----0-0-0-0--0-0--0-0--0-0--0--0-0--0-0-0-0-0--0--0-0--------------|
 B|----0-0-0-0--0-0--0-0--0-0--0--0-0--0-0-0-0-0--0--0-0-0-0-0-0-0----|

C#|-------------------------------------------------------------------|
G#|-------------------------------------------------------------------|
 E|-------------------------------------------------------------------|
 B|----2-2-2-2-----------------2------------------1--1-1--------------|
F#|----2-2-2-2--2-2--2-2--2-2--2--2-2--1-1-1-1-1--1--1-1--------------|
 B|----2-2-2-2--2-2--2-2--2-2--2--2-2--1-1-1-1-1--1--1-1-1-1-1-1-1----|

C#|-------------------------------------------------------------------|
G#|-------------------------------------------------------------------|
 E|-------------------------------------------------------------------|
 B|----0-0-0-0-----------------0------------------0--0-0--------------|
F#|----0-0-0-0--0-0--0-0--0-0--0--0-0--0-0-0-0-0--0--0-0--------------|
 B|----0-0-0-0--0-0--0-0--0-0--0--0-0--0-0-0-0-0--0--0-0-0-0-0-0-0----|

	2:22-48
C#|------------------|
G#|------------------|
 E|------------------|
 B|----5~----11~-----|
F#|----5~----11~-----|
 B|----5~----11~-----|

C#|---------------------------------------------------------------------------|
G#|---------------------------------------------------------------------------|
 E|---------------------------------------------------------------------------|
 B|--0------------------------------------------------------------------------|
F#|--0------------------8---7--8-7-7h8p7--5---4---5-4-4h5p5-------------------|
 B|--0--0-0-0-0-0-0-0-0---0--0--------------0---0-----------8-0-7-0-8-0-7-10h12|(x2)


C#|--------------------------------------------------------------------------|
G#|--------------------------------------------------------------------------|
 E|--------------------------------------------------------------------------|
 B|--------------------------------------------------------------------------|
F#|--8---7---8----7--3h5-5*----0-0--0-0--0-0-------------------8--5--10------|
 B|----0---0---0---------------0-0--0-0--0-0--0-0-0-0-0-0-0-0--8--5--10------|(x2)
	
	2:49-3;23
C#|--------------------------------------------------------------------|
G#|--------------------------------------------------------------------|
 E|--------------------------------------------------------------------|
 B|--------------------------------------------------------------------|
F#|--------------------------------------------------------------------|
 B|---0t---8t--5t---7t---8t---3t--5t---0t---8t--5t---7t---8t---3t------|
(play until guitar fades out)


WE CANNOT RESTORE, WE CANNOT RECOVER!
ALL IS LOST IN THE FLOOD OF THE RAISING DEAD!
WE CANNOT RESTORE, WE CANNOT RECOVER!
ALL IS LOST IN THE STORM OF THE DISGRACEFUL!


************************************

| t   tremelo pick
| /   slide up
| \   slide down
| h   hammer-on
| p   pull-off
| ~   vibrato
| +   harmonic
| x   Mute note
| b   Bend
| pb  Pre-bend
| br  Bend release
| pbr Pre-bend release
| brb Bend release bend

************************************
Tap to rate this tab
 
# A B C D E F G H I J K L M N O P Q R S T U V W X Y Z