The Devil Wears Prada - Revive tab

The Devil Wears Prada
Revive
Zombie EP 2010

the song is in Drop B tuning
(this tab was made on 31august2010 by PeterGeorge) woohoo!!
*made this tab cause there was NONE!!* 





Db|----------------------------|  then |-----------------------|
G#|----------------------------|       |-----------------------|   0:10-0:20
E |----------------------------|       |-----------------------|
B |----------------------------|       |-----------------------|  2x 
F#|----------------------------|       |-1---------2-----------|
B |-2-00-2-0-2-0-22-00-2-0-2-0-|       |---3-1-------4-2-------|

(make it squeal on the last note during the second time)

|----------------------------------------------|  |--------------------|
|----------------------------------------------|  |---7----------------|
|----------------------------------------------|  |--10----------------|0:21-0:35
|----------------------------------------------|2x|--------------------|
|-----------------------------1---------2------|  |--------------------|
|-000--000000--000000--000------3-1-------4-2--|  |--------000-000-----|


|-------------------------------------------------------|
|-------------------------------------------------------|
|-------------------------------------------------------|
|-------------------------------------------------------|0:36-0:48
|--5----7-8--5--10--8---7----5----7-8--5--10--8--12-8---|
|----00-----0---0--------------00-----0--0------0-------|


|-------------------------------------------------------|
|-------------------------------------------------------|
|-------------------------------------------------------|
|-------------------------------------------------------|
|-------------------------------------------------------|
|--12-00-12-12-000000--12-00-12-12-00000-12-1212-00000--|


|---------------------------------------------|
|---------------------------------------------|
|---10----------10-----------9-10---9-10------|0:49-1:06
|-------12-10-------12-10---------------------|
|---------------------------------------------|
|---------------------------------------------|

chorus
|---------------------------------------------|
|---------------------------------------------|
|---------------------------------------------|
|---------------------------------------------|1:07-1:30
|---------------------------------------------|
|--00000--777-555555--777778-44444--222444----|


|-----------------------------------------------------------------------|
|-----------------------------------------------------------------------|
|-----------------------------------------------------------------------|1:31-1:42
|-----------------------------------------------------------------------|
|--7-----5-4-----7----5-4------444------7-----5-4-----7----5-4----------|
|----00------------00------888-------------00------------00------888-1--|



Breakdown!!1:43-2:23
|-----------------------------------------------------------|
|-----------------------------------------------------------|
|-----------------------------------------------------------|
|-----------------------------------------------------------|
|-----------------------------------------------------------|
|-0-0000-0---7-0000-7-0----4-0000-4-0----1-0000-1--00-0-000-|

|--------------------------------------------------------------|
|--------------------------------------------------------------|
|--------------------------------------------------------------|
|--------------------------------------------------------------|
|--------------------------------------------------------------|
|--000--00-000-000--000--00-000-000-4(squeal)--222222--111111--|



|----------------------------------------|
|----------------------------------------|
|----------------------------------------|
|------------------------------4--10-----|
|------------------------------4--10-----|
|---0000-00--00-000-00--0-00---4--10-----|


After Breakdown
|--------------------------------------------------------|
|--------------------------------------------------------|
|--------------------------------------------------------|2x
|--------------------------------------------------------|
|---------8-7-8-7-7h8p7---5-4-5-4-4h5p4------------------|
|-0-0000---------------------------------8-7-8-7--10h12--|


|--------------------------------------------------------|
|--------------------------------------------------------|
|--------------------------------------------------------|2x then chorus
|-------------------------------------------8\4/10-------|
|---8-7-8-7---3h5-5(squeal)-----------------8\4/10-------|
|-0--------------------------000-000-00000--8\4/10-------|



chorus
|---------------------------------------------|
|---------------------------------------------|
|---------------------------------------------|
|---------------------------------------------|1:07-1:30
|---------------------------------------------|
|--00000--777-555555--777778-44444--222444----|


i hope this is correct haha


*find the timing yourself*
*the breakdown 0's arent accurate so figure it out yourself*
IF there are any mistakes u can email me at hydrolux_boy@hotmail.com
Enjoy and Godbless :D
i♥tdwp
and Jesus♥u 
GodBless:D


Lyrics:

Science has become a child's game.
There is no solution to bring away this plague.
... No remedies have been discovered.

The cure is a shotgun, the cure is whatever blunt instrument one can salvage.
Whomever finds themselves too proper will be the first to perish.
And you know nothing that matters now.

We cannot restore (restore), we cannot recover (recover):
All is lost in the flood of the risen dead.
We cannot restore (restore), we cannot recover (recover):
All is lost in the storm of the disgraceful.

The incurable bring us our punishment.
Today's destruction can only be measured in... in biblical... biblical proportion.

Let's go... 
My will is at God's hand, never within man's teeth.

Always wanting more, never enough, until this day and age when there's nothing left.
Always wanting more. Never enough.
Tap to rate this tab
 
# A B C D E F G H I J K L M N O P Q R S T U V W X Y Z