Song name
# A B C D E F G H I J K L M N O P Q R S T U V W X Y Z

The Devil Wears Prada - You Cant Spell Crap Without C tab

-------------------------------------------------------------------------------
			     You Can't Spell Crap Without "C" - The Devil Wears Prada
-------------------------------------------------------------------------------
Tabbed by: rsxkilla
Email: gpknights19@hotmail.com

Tuning:Drop D

youtube cover- http://www.youtube.com/watch?v=1zaHb8_No-0

I realize there are many tabs for this song out already but they seem to 
be garbage.. this is my shot at making a better tab for it


	(0:08-30)
	pickslide		last 2 chords are not all fluently strummed
e|---------------------------------------------------------------------------|
B|---------------------------------------------------------------------------|
G|--------------17-----15-----14------------12-----14--------10-----12-------|
D|-\\\\\\\-------x(x8)--x(x4)--x(x4)----0----x(x4)--x-(x4)----x(x8)--x(x8)---|
A|-\\\\\\\------15-----13-----12--------0---10-----12---------8-----10-------|
D|--------------------------------------0------------------------------------|

e|-------------------------------------------------------------------|
B|-------------------------------------------------------------------|
G|------17-----15-----14------------12-----14--------10-----12-------|
D|-------x(x8)--x(x4)--x(x4)----0----x(x4)--x-(x4)----x(x8)--x(x8)---|
A|------15-----13-----12--------0---10-----12---------8-----10-------|
D|------------------------------0------------------------------------|

	(0:31-45)
e|---------------------------------------------------------------------------|
B|---------------------------------------------------------------------------|
G|-----7t--10t-9t--5t--7t--12t-14t---7t---12t--10t-9t------------------------|
D|---------------------------------------------------------------------------|
A|---------------------------------------------------------------------------|
D|---------------------------------------------------------------------------|

	(0:46-56) 
e|--------------------------------------|
B|-----------------10--10-10------------|
G|------------------x---x--x------------|
D|------------------8---8--8------------|
A|--0-------0---------------------------|
D|--0---0-0-0--0-0----0-----------------|(x2)

	(0:57-1:16
		 (rough estimate on strumming pattern)
e|----------------------------------------------------------------------------|
B|----------------------------------------------------------------------------|
G|----14-----12---10-----7----10----12-----17----12---1O----17-----19--14-----|
D|-----x(x6)--x(4)-x(x4)-X(X6)-x(4)--x(x4)--X(6)--X(4)-X(4)--X(X4)--X---X(X4)-|
A|----12-----10----8-----5-----8----10-----15----10----8----15-----17--12-----|
D|----------------------------------------------------------------------------|(x2)
    
	(1:17-26)
       pick slide
e|-----------------------------------------------------------------------------|
B|------6b~----------------------6b~-------------------------------------------|
G|------9b~----------------------9b~-------------------------------------------|
D|-0~~--------\\\\\\\-------0~~------------------------------------------------|
A|-0~~--------\\\\\\\-------0~~--------1-1-1-3-2-1-----------------------------|
D|-0~~----------------------0~~--------1-1-1-3-2-1-----------------------------|

	(1:27-37)				
e|----------------------------------------------------------------------------|
B|----------------------------------------------------------------------------|
G|------------------------12---12-12--------------------------10---10-10------|
D|-0-----------------------x----x--x---0-----------------------x----x--x------|
A|-0----------------------10---10-10---0-----------------------8----8--8------|
D|-0--0-0-0--0-0-0--0-0-0--------------0--0-0-0--0-0-0--0-0-0-----------------|

e|---------------------------------------------------------------------|
B|---------------------------------------------------------------------|
G|------------------------15---15-15-----------------------------------|
D|-0-----------------------x----x--x---0-------------------------------|
A|-0----------------------13---13-13---0----------------1-1-1-3-2-1----|
D|-0--0-0-0--0-0-0--0-0-0--------------0--0-0-0--0-0-0--1-1-1-3-2-1----|


	(1:38-47)
e|---------------------------------------------------------------------------|
B|---------------------------------------------------------------------------|
G|--------------------------------------14---14-14---------------------------|
D|--0~~------------------0---------------x----x--x---------------------------|
A|--0~~------0-------0---0------0----0--12---12-12---------------------------|
D|--0~~--0-0-0-------0---0--0-0-0----0---------------------------------------|


e|---------------------------------------------------------------------------|
B|---------------------------------------------------------------------------|
G|--------------------------------------10---10-10---------------------------| 
D|--0~~------------------0---------------x----x--x---------------------------|
A|--0~~------0-------0---0------0----0---8----8--8---------------------------|
D|--0~~--0-0-0-------0---0--0-0-0----0---------------------------------------|

	(1:48-57)
e|---------------------------------------------------------------------------|
B|---------------------------------------------------------------------------|
G|---------------------------------------------------------------------------|
D|--0~~~~~~~~~~~-----8~~~~~~~~~~~~~~~~~--------------------------------------|
A|--0~~~~~~~~~~~-----8~~~~~~~~~~~~~~~~~--------------------------------------|
D|--0~~~~~~~~~~~-----8~~~~~~~~~~~~~~~~~--------------------------------------|

	(1:58-2:16)
e|---------------------------------------------------------------------------|
B|---------------------------------------------------------------------------|
G|-----10--------12--------14------17-----15-----14--------------------------|
D|--0---x(x4)-0---x(x4)-0---x(x4)---x(x4)--x(x3)--x--------------------------|
A|--0---8-----0--10-----0--12------15-----13-----12--------------------------|
D|--0---------0---------0----------------------------------------------------|


e|---------------------------------------------------------------------------|
B|---------------------------------------------------------------------------|
G|-----10---------9---------7-------9----------------------------------------|
D|--0---x(x4)-0---x(x4)-0---x(x6)---x(8)-------------------------------------|
A|--0---8-----0---7-----0---5-------7----------------------------------------|
D|--0---------0---------0----------------------------------------------------|(x2)
(repeat the last 2 bars) (at the end of repeat continue strumming the last chord
into the next riff)


	(2:17-57)
(i think this is slightly off, it has delay in it)

e|--------------------------------12h13p12-------|
B|-----------------------------------------13----|
G|-----------------------------------------------|
D|---12--14-15-14-15-14-12--14-15----------------|
A|-----------------------------------------------|
D|-----------------------------------------------|

e|-----------------------------------------------|
B|-----------------------------------------------|
G|-----------------------------------------------|
D|---12-12/14h15-14/15h17------------------------|
A|-----------------------------------------------|
D|-----------------------------------------------|

e|--------------------------------12h13p12--------------------|
B|-----------------------------------------13-----------------|
G|----------------------------------------------14-14-15b-17b-|
D|---12--14-15-14-15-14-12--14-15-----------------------------|
A|------------------------------------------------------------|
D|------------------------------------------------------------|(x3)
(the repeat starts back at the first bar)

e|--------------------------------12h13p12-------|
B|-----------------------------------------13----|
G|-----------------------------------------------|
D|---12--14-15-14-15-14-12--14-15----------------|
A|-----------------------------------------------|
D|-----------------------------------------------|

e|-----------------------------------------------|
B|-----------------------------------------------|
G|-----------------------------------------------|
D|---12-12/14h15-14/15h17--15----14--------------|
A|-----------------------------------------------|
D|-----------------------------------------------|


	(2:58-3:07)
	  amount of strums may be off
e|--------------------------------------|
B|--------------------------------------|
G|-------------15-----------------------|
D|--0----0-----14(X12)------------------|
A|--0----0-----13--------0~-------------|
D|--0----0---------------0~-------------|

	(3:08-17)
       strumming pattern may be slightly off
e|--------------------------------------------------------------|
B|--------------------------------------------------------------|
G|----------------------------------------------------15--------|
D|-0-----------0-----------0-----------0--------------14(x8)----|
A|-0--0-0-0-0--0--0-0-0-0--0--0-0-0-0--0--0-0-0-0-----13--------|
D|-0--0-0-0-0--0--0-0-0-0--0--0-0-0-0--0--0-0-0-0---------------|(x2)

	(3:18-23)
e|---------------------------------------------------------------------------|
B|---------------------------------------------------------------------------|
G|-----------------------------15--------------------------------------------|
D|--0-----0-----0----0----0----14(x8)----------------------------------------|
A|--0-----0-----0----0----0----13--------------------------------------------|
D|--0-----0-----0----0----0--------------------------------------------------|

	(3:24-33)
e|-----------------------------------------------------------------------|
B|-----------------------------------------------------------------------|
G|-----------------------------------------------------------------------|
D|--0----0-----0--------0------------------------------------------------|
A|--0----0-----0----0---0------------------------------------------------|
D|--0----0-----0----0---0------------------------------------------------|



************************************

| t   tremelo pick
| ~   let ring
| /   slide up
| \   slide down
| h   hammer-on
| p   pull-off
| +   harmonic
| x   Mute note
| b   Bend
| pb  Pre-bend
| br  Bend release
| pbr Pre-bend release
| brb Bend release bend

************************************
Tap to rate this tab
 
# A B C D E F G H I J K L M N O P Q R S T U V W X Y Z