The Devil Wears Prada - Goats On A Boat tab

e|-----------17----------18---------------------------------------------|
B|--------------16-17-------17-18---------------------------------------|
G|--------------------16----------17------------------------------------|
D|----------------------------------------------------------------------|
A|-00000-0-0-------------------------00000------------------------------|
D|-00000-0-0-------------------------00000------------------------------|

e|------------------------------------------------------------------|
B|---------------------------12h13p12-------------------------------|
G|-------------------12h13p12--------12h13p12-----------------------|
D|-----------12h13p12-----------------------------------------------|
A|-00000-0-0----------------------------------00000-----------------|
D|-00000-0-0----------------------------------00000-----------------|
Tap to rate this tab
 
# A B C D E F G H I J K L M N O P Q R S T U V W X Y Z