Guitaretab - guitar tabs
Song name
# A B C D E F G H I J K L M N O P Q R S T U V W X Y Z

The Devil Wears Prada - Dez Moines tab

Song: Dez Moines
Band: The Devil Wears Prada

Tuning:Drop D

E|------------------------|
B|------------------------|
G|-7~~---9~~---3~~--5~~---|
D|------------------------|
A|-5~~---7~~---1~~--3~~---|
D|------------------------|

Or

E|------------------------|
B|------------------------|
G|-7~~---9~~---10~~--12~~-|
D|------------------------|
A|-5~~---7~~----8~~--10~~-|
D|------------------------|


With delay
E|------------------------------------|
B|------------------------------------|
G|-7-10-9-12-10-14-12-15-14-17-15-14--| x2
D|------------------------------------|
A|------------------------------------|
D|------------------------------------|

E|---------------|
B|---------------|
G|-7-10-9-3-10-9-|
D|---------------|
A|-5-8--7-1-8--7-|
D|---------------|

E|--------------------------------------------------------------|
B|--------------------------------------------------------------|
G|------14----------1414------14--------------------------------|
D|--------------------------------------------------------------|
A|------12----------1212------12-----88888888-1010101010101010--|
D|-0000----0-0-0-00------0000----0-0-88888888-1010101010101010--|

E|------------------------------------------------------------------|
B|------------------------------------------------------------------|
G|--------14----------------1414-------14---------------------------|
D|----------------------------------------------------------- 10-9--|
A|--------12----------------1212-------12-------8888-10101010-----\\|
D|-0000000--0000000000000000----0000000--000000-8888-10101010-8--7\\|

E|---------------------------------------|
B|---------------------------------------|
G|---------------------------------------| 
D|---------------------------------------|
A|-12----13-12-15-13-12----------10-8-7--|
D|---000----------------00000000---------|
                                             
E|--------------------------------------|
B|--------------------------------------|
G|--------------------------------------| 
D|--------------------------------------|
A|-12----13-12-15-13-12----------8-7-5--|
D|---000----------------00000000--------|
                                             x2

E|---------------------------------------|
B|---------------------------------------|
G|---------------------------------------| 
D|---------------------------------------|
A|-12----13-12-15-17-15--------13-12-----|
D|---000----------------000000-----------|

E|---------------------|
B|---------------------|
G|---------------------|
D|---------------------|
A|-0--00-00-00-00-00---| 
D|-0--00-00-00-00-00---|

E|---------------------------------------|
B|---------------------------------------|
G|---------------------------------------| 
D|---------------------------------------|
A|-12----13-12-15-17-15--------13-12-----|
D|---000----------------000000-----------|

E|-------------------------------------|
B|-------------------------------------|
G|-------------------------------------|
D|-------------------------------------|
A|-0--00-00-00--00-00-00--00-00-0------|
D|-0--00-00-00--00-00-00--00-00-0------|

E|----------------------------------------------|
B|----------------------------------------------|
G|----------------------------------------------|
D|----------------------------------------------|
A|-0--00-00-00--00-00-00--00-00-00-00----------|
D|-0--00-00-00--00-00-00--00-00-00-00---/12\10--|

E|----15/17\15--------|  |----15/17\15-----| repeat
B|-13----------18\17--|  |-13----------15--| both 4x
G|--------------------|  |-----------------|
D|--------------------|  |-----------------|
A|--------------------|  |-----------------|
D|--------------------|  |-----------------|

E|---------------------------------------------------|
B|---------------------------------------------------|
G|---------------------------------------------------|
D|-14-12-10-14-8-17-14-12-10-14-17-14-12-10-14-12-10|
A|---------------------------------------------------|
D|-12-10-8--12-10-15-12-10-812--15-12-10-8--12-10-8-|

E|-------------------------------------------------------|
B|-------------------------------------------------------|
G|77777777777777777-666666666-33333333-------------------|
D|-------------------------------------------------------|
A|55555555555555555-444444444-11111111-------------------|
D|-------------------------------------0000000000000000--|

E|---------------------------------------------|
B|---------------------------------------------|
G|-7--6--9--6--7--9--10--12--------------------|
D|---------------------------------------------|
A|-5--4--7--4--5--7--8---10--------------------|
D|---------------------------0000000000000000--|
[ Tab from: http://www.guitaretab.com/t/the-devil-wears-prada/256000.html ]
Breakdown
E|----------------------------------------------------------------|
B|----------------------------------------------------------------|
G|------------------------------------------------------14\10/14--|
D|----------------------------------------------------------------|
A|-----8\5/12-----------------------8\5/12--------------12\10/12--|
D|-000--------0-0-000-0-000-000-000-------0-0-000-000-------------|

E|--------------------------------------------------------------------|
B|--------------------------------------------------------------------|
G|----------------------------------------------------------14\12/14--|
D|--------------------------------------------------------------------|
A|------12\8/15------------------------12\8/15--------------12\10/12--|
D|-000----------0-0-000-0-000-000-000-----------0-0-000-000-----------|

E|-------------------------------|
B|-------------------------------| 2x
G|-------------------------------|
D|-------------------------------|
A|-000------------000-0-000-000--|
D|-000------------000-0-000-000--|

E|----------------------------------------------------------------|
B|----------------------------------------------------------------|
G|----------------------------------------------------------------|
D|----------------------------------------------------------------|
A|-----8\5/12----------------------8\5/12-------------------------|
D|-000-------0-0-000-0-000-000-000--------0-0-0-0000000000000000--|

  Tremolo Pick                   Delay 
E|--------------------------------20--18--17--1817~~\--|
B|-----6-8-6-11-13-10-13-15-17-18-----------------------|
G|-7-9--------------------------------------------------|
D|------------------------------------------------------|
A|------------------------------------------------------|
D|------------------------------------------------------|

E|---------------------------------------|
B|---------------------------------------|
G|---------------------------------------| 
D|---------------------------------------|
A|-12----13-12-15-13-12----------10-8-7--|
D|---000----------------00000000---------|
                                             
E|--------------------------------------|
B|--------------------------------------|
G|--------------------------------------| 
D|--------------------------------------|
A|-12----13-12-15-13-12----------8-7-5--|
D|---000----------------00000000--------|
                                             x2

E|---------------------------------------|
B|---------------------------------------|
G|---------------------------------------| 
D|---------------------------------------|
A|-12----13-12-15-17-15--------13-12-----|
D|---000----------------000000-----------|

E|---------------------|
B|---------------------|
G|---------------------|
D|---------------------|
A|-0--00-00-00-00-00---|
D|-0--00-00-00-00-00---|

E|---------------------------------------|
B|---------------------------------------|
G|---------------------------------------| 
D|---------------------------------------|
A|-12----13-12-15-17-15--------13-12-----|
D|---000----------------000000-----------|

E|--------------------------------------|
B|--------------------------------------|
G|--------------------------------------|
D|--------------------------------------|
A|-0--00-00-00--00-00-00--00-00-0~~-----|
D|-0--00-00-00--00-00-00--00-00-0~~-----|


| /  slide up
| \  slide down
| h  hammer-on
| p  pull-off
| ~  vibrato
| +  harmonic
| x  Mute note
| \\ Pickslide

	
Optional:

	Intro:
E|-------------------------------------------------------------------------|
B|-------------------------------------------------------------------------|
G|--------14----------------1414-------14--------14-14-14--12-12-12--10~~--|
D|-------------------------------------------------------------------------| 
A|--------12----------------1212-------12--------12-12-12--10-10-10--8~~-\\|
D|-0000000--0000000000000000----0000000--000000--------------------------\\|

	Chorus:
	E|---------------|
	B|---------------|
	G|---------------|
	D|-8--5--0--8--5-|
	A|-8--5--0--8--5-|
	D|-8--5--0--8--5-|

	Breakdown:
E|---------------------------------------------------------------|
B|---------------------------------------------------------------|
G|------------------------------------------------------10\9/10--|
D|---------------------------------------------------------------|
A|-----8\5/12-----------------------8\5/12--------------8-\7/8---|
D|-000--------0-0-000-0-000-000-000-------0-0-000-000------------|

E|-------------------------------------------------------------------|
B|-------------------------------------------------------------------|
G|----------------------------------------------------------10\9/10--|
D|-------------------------------------------------------------------|
A|------12\8/15------------------------12\8/15--------------8-\7/8---|
D|-000----------0-0-000-0-000-000-000-----------0-0-000-000----------|

	So this is my first tab, hope it helps. Rock on and ☮!

Related for Dez Moines tab
Dez Moines chords by The Devil Wears Prada