Song name
# A B C D E F G H I J K L M N O P Q R S T U V W X Y Z

The Devil Wears Prada - Still Fly tab

This is the perfect intro for still fly.
Feel free to rate or comment.
Check out my profile


H= hammer
P= pull off
/= slide
------------------------------------------|
-----10-10--------------------------------|
-------------12p10-12p10-------10---------|
-12------------------------12------12-----|
------------------------------------------|
------------------------------------------|


------------------------------------------|
------10-10-11/13-11-10----------10-10----|
------------------------------------------|
-----------------------------12-----------|
--13--------------------------------------|
------------------------------------------|


-------------------------------------------|
-------------------------------------10-10-|
--12p10-12p10-------10---------------------|
----------------12------12-----------------|
-------------------------------13----------|
-------------------------------------------|


------------------------------------------|
-11/13--11--10h11p10----------------------|
------------------------------------------|
------------------------------------------|
------------------------------------------|
------------------------------------------|
Tap to rate this tab
 
# A B C D E F G H I J K L M N O P Q R S T U V W X Y Z