Song name
# A B C D E F G H I J K L M N O P Q R S T U V W X Y Z

The Devil Wears Prada - Louder Than Thunder chords

Highlighted       Show chord diagrams
So another song that it seemed people couldn't get quite right. I saw a few close ones 
but this one is EXACTLY on key. Hope you enjoy :)

Intro: Cm, Ab, Bb, Fm

Cm                                     Ab
   What would it take for things to be quiet,
Ab              Cm
quiet like the snow. I know this isn't much
    Ab              Bb
but i know, i could, i could be better.

Chorus:
                   Ab       Fm
I don't think i deserve it. Selflessness.
Cm               Bb
Find Your way, into my heart.
Ab                 Fm
All stars could be brighter.
Cm                   Ab    Bb   (Bb is optional. I find myself going there)
All hearts could be warmer.     (out of instinct every now and then)


Cm                                      Ab
    What would it take for things to be quiet,
Ab              Cm
quiet like the snow. Are we meant to be empty handed?
Ab                          Bb
I know, i could, i could be better.

Chorus:
                   Ab       Fm
I don't think i deserve it. Selflessness.
Cm               Bb
Find Your way, into my heart.
Ab                 Fm
All stars could be brighter.
Cm                   Ab    Bb
All hearts could be warmer.

Outro

Ab-Fm-Cm-Bb

|-------------------------------------|
|----8~--6~------8\9-8~---------------|
|----------5~--------------5~--3-3\5~-|
|-------------------------------------|
|-------------------------------------|
|-------------------------------------|

|-----------------------------------------------|
|----8~--6~------8\9-8~-------------------------|
|----------5~--------------5~--3-3\5~----3-3\0~-|
|-----------------------------------------------|
|-----------------------------------------------|
|-----------------------------------------------|
Tap to rate this tab
 
# A B C D E F G H I J K L M N O P Q R S T U V W X Y Z