Song name
# A B C D E F G H I J K L M N O P Q R S T U V W X Y Z

The Devil Wears Prada - Wildman tab

Artist:	The Devil Wears Prada				Tabbed by: Josey Stines
Song:	Danger: Wildman
Album:	With Roots Above and Branches Below
Year:	2009
Tuning:	Drop D
______________________________________________________________________________
0:00
E -------|
B -------|
G -------|
D -------|
A ---0---|
D ---0---|

E -------------------------------------------------------------|
B -------------------------------------------------------------|
G -------------------------------------------------------------|
D -------------------------------------------------------------|  x2
A ---/5--5-(5)-------------------------------------------------|
D --------------0-0-0--0-0-(0)-0-0--0-0--0-0--0--0-0-0-0-0-0---|
                 * *    * *     *    *    *       * * * * * *
E -------------------------------------------------------------|
B -------------------------------------------------------------|
G -------------------------------------------------------------|
D -------------------------------------------------------------|  x2
A ---/4--4-(4)-------------------------------------------------|
D --------------0-0-0--0-0-(0)-0-0--0-0--0-0--0--0-0-0-0-0-0---|
                 * *    * *     *    *    *       * * * * * *
E -------------------------------------------------------------|
B -------------------------------------------------------------|
G -------------------------------------------------------------|
D -------------------------------------------------------------|  x2
A ---/8--8-(8)-------------------------------------------------|
D --------------0-0-0--0-0-(0)-0-0--0-0--0-0--0--0-0-0-0-0-0---|
                 * *    * *     *    *    *       * * * * * *
E -------------------------------------------------------------|
B -------------------------------------------------------------|
G -------------------------------------------------------------|
D -------------------------------------------------------------|  x2
A ---/7--7-(7)-------------------------------------------------|
D --------------0-0-0--0-0-(0)-0-0--0-0--0-0--0--0-0-0-0-0-0---|
                 * *    * *     *    *    *       * * * * * *
E -------|
B -------|
G -------|
D -------|
A ---0---|
D ---0---|

0:29
E ------------------------------------------------------|
B ------------------------------------------------------|
G ------------------------------------------------------|
D ------------------------------------------------------|  x2
A ---0-0-0-0-0-0--0-0--0-0--0-0-0-0-0-0-0-0--0-0--0-0---|
D ---0-0-0-0-0-0--0-0--0-0--0-0-0-0-0-0-0-0--0-0--0-0---|
      * * * * * *  * *  * *  * * * * * * * *  * *  * *
E ½----------------------------------------------------------|
B ½----------------------------------------------------------|
G ½----------------------------------------------------------|
D ½----------------------------------------------------------|
A ½---0-0---0-0--0-0--0-0-0-0-0-0-0-0--0-0--0-0--0-0-0-0-0-0-|
D ½---0-0---0-0--0-0--0-0-0-0-0-0-0-0--0-0--0-0--0-0-0-0-0-0-|

------------------------------------------------------------------|
------------------------------------------------------------------|
------------------------------------------------------------------|
------------------------------------------------------------------|
-0-0--0-0--0-0-0-0-0-0-0-0--0-0--0-0--0-0--0-0-0-0-(0)-0--0-0-0---|
-0-0--0-0--0-0-0-0-0-0-0-0--0-0--0-0--0-0--0-0-0-0-(0)-0--0-0-0---|

      *     * *  * *  * * * * * * * *  * *  * *  * * * * * *  * *
0:44
E ½------------------------------------------------------|
B ½------------------------------------------------------|
G ½---10--------9---------14--------12-------15-------10-|
D ½---X--(x16)--X--(x16)--X--(x16)--X--(x8)--X--(x8)--X--|
A ½---8---------7---------12--------10-------13-------8--|
D ½------------------------------------------------------|

---------------------------------------------------|
---------------------------------------------------|
-------9---------7---------7-7-7/9-9-9--14--(14)---|
(x16)--X--(x16)--X--(x16)--X-X-X/X-X-X--X----------|
-------7---------5---------5-5-5/7-7-7--12--(12)---|
---------------------------------------------------|


0:57
E ½-------------------------------------------------------|
B ½-------------------------------------------------------|
G ½---7--------14-------12-------10-------14-------12-----|
D ½---X--(x6)--X--(x3)--X--(x4)--X--(x7)--X--(x4)--X--(x4)|
A ½---5--------12-------10-------8--------12-------10-----|
D ½-------------------------------------------------------|

------------------------------------------------|
------------------------------------------------|
--9--------10-------7--------9--7--6--------7---|
--X--(x8)--X--(x4)--X--(x6)--X--X--X--(x8)--X---|
--7--------8--------5--------7--5--4--------5---|
------------------------------------------------|


E ------------------------------------------|
B ------------------------------------------|
G ------------------------------------------|
D ------------------------------------------|
A ---(0)----(0)----pickslide----pickslide---|
D ---(0)----(0)----pickslide----pickslide---|

1:16
E ----------------------------------------------------------------------------------------|
B ----------------------------------------------------------------------------------------|
G ---10------12/9-----9/10-----7/9/10-----7-6-10-----12/9-----9/10-----7/9/10-----7/6/7---|
D ---X-------X--------X--------X----------X-X-X------X--------X--------X----------X-------|
A ---8-------10/7-----7/8------5/7/8------5-6-8------10/7-----7/8------5/7/8------5/4/5---|
D -------0-0------0-0------0-0--------0-0--------0-0------0-0------0-0--------0-0---------|
          * *      * *      * *        * *        * *      * *      * *        * *
E --------------------------------------------------------------------------------|
B --------------------------------------------------------------------------------|
G ---14-15-12---12-14---10-12-14---10-9---14-15-12---12-14---10-12-14---10/9-10---|
D ---X--X--X----X--X----X--X--X----X--X---X--X--X----X--X----X--X--X----X----X----|
A ---12-13-10---10-12---8--10-12---8--7---12-13-10---10-12---8--10-12---8-/7-8----|
D --------------------------------------------------------------------------------|

1:29
E ----------------------------------------------------------------|
B ----------------------------------------------------------------|
G ----------------------------------------------------------------|
D ----------------------------------------------------------------|
A ---5------------------------------------------------------------|
D ------0-0-0-0-0-0-0-0--12-10-8--7--0-0-0-0-0-0-4--1-1-1-1-1-1---|
         * * * * * * * *              * * * * * *    * * * * * *
E ---------------------------------------------------------|
B ---------------------------------------------------------|
G ---------------------------------------------------------|
D ---------------------------------------------------------|
A ---------------------------------------------------------|
D ---0---0-0-0-0-0-0-0-0--12-10-8--7-7-7-7-7-7-7-4-4-4-4---|
      *   * * * * * * * *           * * * * * * * * * * *
E ----------------------------------------------------------------|
B ----------------------------------------------------------------|
G ----------------------------------------------------------------|
D ----------------------------------------------------------------|
A ---5------------------------------------------------------------|
D ------0-0-0-0-0-0-0-0--12-10-8--7--0-0-0-0-0-0-4--1-1-1-1-1-1---|
         * * * * * * * *              * * * * * *    * * * * * *
E ---------------------------------------------------------|
B ---------------------------------------------------------|
G ---------------------------------------------------------|
D ---------------------------------------------------------|
A ---------------------------------------------------------|
D ---0---0-0-0-0-0-0-0-0--12-10-8--7-7-7-7-7-7-7-4-4-4-4---|
      *   * * * * * * * *           * * * * * * * * * * *
E ----------------------|
B ----------------------|
G ---10-------12--------|
D ---x--(x8)--X--(x9)---|
A ---8--------10--------|
D ----------------------|

1:45
E ½-------------------------------------------------------|
B ½-------------------------------------------------------|
G ½---7--------14-------12-------10-------14-------12-----|
D ½---X--(x6)--X--(x3)--X--(x4)--X--(x7)--X--(x4)--X--(x4)|
A ½---5--------12-------10-------8--------12-------10-----|
D ½-------------------------------------------------------|

------------------------------------------------|
------------------------------------------------|
--9--------10-------7--------9--7--6--------7---|
--X--(x8)--X--(x4)--X--(x6)--X--X--X--(x8)--X---|
--7--------8--------5--------7--5--4--------5---|
------------------------------------------------|


E ------------------------------------------------------------------------------|
B ------------------------------------------------------------------------------|
G ---14-15-12---12-14---10-12-14---10-9---14-15-12---12-14---10-12-14---7/6-7---|
D ---X--X--X----X--X----X--X--X----X--X---X--X--X----X--X----X--X--X----X---X---|  x2
A ---12-13-10---10-12---8--10-12---8--7---12-13-10---10-12---8--10-12---5/4-5---|
D ------------------------------------------------------------------------------|

2:57
E ------------------------------------------------------|
B ------------------------------------------------------|
G ------------------------------------------------------|
D ------------------------------------------------------|  x2
A ---0-0-0-0-0-0--0-0--0-0--0-0-0-0-0-0-0-0--0-0--0-0---|
D ---0-0-0-0-0-0--0-0--0-0--0-0-0-0-0-0-0-0--0-0--0-0---|
      * * * * * *  * *  * *  * * * * * * * *  * *  * *
E -------------------------------------------------------------------------------------------|
B -------------------------------------------------------------------------------------------|
G -----------------------------------------------------------------------14-14-14/15-15-15---|
D -----------------------------------------------------------------------X--X--X-----X--X----|
A ---0---0-0--0-0--0-0-0-0-0-0-0-0--0-0--0-0--0-0-0-0-0-0--0-0--0-0--0-0-12-12-12/13-13-13---|
D ---0---0-0--0-0--0-0-0-0-0-0-0-0--0-0--0-0--0-0-0-0-0-0--0-0--0-0--0-0---------------------|
      *   * *  * *  * * * * * * * *  * *  * *  * * * * * *  * *  * *  * *
3:10
E ----------------------------------------------------------------------|
B ----------------------------------------------------------------------|
G ---19--------18--------14--------12-------14-------15-------18--------|
D ---X--(x16)--X--(x15)--X--(x13)--X--(x2)--X--(x2)--X--(x8)--X--(x8)---|  x2
A ---17--------16--------12--------10-------12-------13-------16--------|
D ----------------------------------------------------------------------|

3:25
E -------------------------------------------------------------------------------------|
B -------------------------------------------------------------------------------------|
G ---14-15-12---12-14---10-12-14---10-9---14-15-12---12-14---10-12-14---10/9-10--------|
D ---X--X--X----X--X----X--X--X----X--X---X--X--X----X--X----X--X--X----X----X---------|
A ---12-13-10---10-12---8--10-12---8--7---12-13-10---10-12---8--10-12---8-/7-8---(0)---|
D -------------------------------------------------------------------------------(0)---|

Legend:
/	Slide Down
()	Optional Note
*	Palm Mute
X	Dead Note

END
Tap to rate this tab
 
# A B C D E F G H I J K L M N O P Q R S T U V W X Y Z